Cifra Club

Aprenda

Menina

João Neto e Frederico

Tablatura: Versão 3 (guitarra)
tono: D
Intro 2x: D  D7+  G
E|---------------------------------------|
B|-------------------10-8-7-7/8-10-8-7---|
G|-9-7-6-6/7-9-7-6/7-------------------7-|
D|-------------------11-9-7-7/9-11-9-7---|
A|-------------------------------------9-|
E|---------------------------------------|

D          D7+                    G
Faz tanto tempo que eu busco no teu amor,
D          D7+               G
Nao vejo a hora menina de te encontrar,
D          D7+                   G
Te ver e dizer que te amo e não da pra evitar,
E|--------------------|
B|-------------7-7/8--|
G|-------6-7-9--------|
D|-6/7-9--------------|
A|--------------------|
E|--------------------|

Em                                   A9
Ganhar seu carinho e provar do seu beijo.
Em                          A
O calor da pele matar meu desejo,meu desejo..

Refrão:
D                     A                   Bm                     G
Menina eu te quero demais pra te ter uma vez nunca mais te encontrar
E|-3-2-2h3-2---|
B|-----------3-|
G|-------------|
D|-------------|
A|-------------|
E|-------------|

D                       A             Bm                     G
Menina esse amor é tão lindo tá no coração no meu jeito de olhar.
E|-9/10-9------------|
B|-------7/10-7------|
G|-------------9\7---|
D|-------------------|
A|-------------------|
E|-------------------|

D                         A                  G
Eu te quero demais,eu te quero demais ,eu te amo..
E|---------------------|
B|---------------------|
G|-9-7-6-6/7-9-7-6/7---|
D|---------------------|
A|---------------------|
E|---------------------|

D       D7+              G    D           D7+                 A
Fica comigo só por uma noite,quem sabe amanha você me quer de novo
D          D7+                G
O nosso romance é paixão e acende esse fogo,
Em                                A
Andei te buscando e agora eu te achei,
Em                                   A
Eu quero te dar todo amor que eu guardei,que eu guardei..

Refrão:
D                     A                   Bm                     G
Menina eu te quero demais pra te ter uma vez nunca mais te encontrar
D                       A             Bm                     G
Menina esse amor é tão lindo tá no coração no meu jeito de olhar.
D                         A                  G
Eu te quero demais,eu te quero demais ,eu te amo..
Colaboración y revision:
  • Cristian Barientos
3 reproducciones
    • ½ Tono
    • A
    • Bb
    • B
    • C
    • Db
    • D
    • Eb
    • E
    • F
    • F#
    • G
    • Ab
  • Adicionar à lista

    0 comentarios

    Ver todos os comentários
    00:00 / 00:00
    outros vídeos desta música
    repetir qualidade Automático
    Outros vídeos desta música
    00:00 / 00:00
    Automático
    OK