Cifra Club

Aprenda

Meu Anjo

João Neto e Frederico

Tablatura: Principal (guitarra)
Tom: E
(intro 2x) E B9 C#m7 A9

(versão normal - guitarra)
E|-----------------------------------------|
B|-5-5----5/7-7-----5-7-7/9-7-5------------|
G|-----4--------4----------------4/6-4-----|  (2x)
D|-----------------------------------------|
A|-----------------------------------------|
E|-----------------------------------------|

(versão acústica - violão)
E|-----------------------------------------|
B|-5-5----5/7-7-----5-7-7/9-7-5------------|
G|-----4--------4----------------4/6-4-----|
D|-----------------------------------------|
A|-----------------------------------------|
E|-----------------------------------------|

E|-----------------------------------------|
B|5-5----5/7-7----5-7-7/9-7-5-5/10--9-7-5--|
G|----4--------4---------------------------|
D|-----------------------------------------|
A|-----------------------------------------|
E|-----------------------------------------|

E                          B9
Não  adianta tentar se esconder
         C#m7                A
porque sempre eu vou te encontrar
      E               B9
vou andar colado em você
     C#m7              A
onde você for eu vou estar
E                      B9
até em seus sonhos vou aparecer
      C#m7               A
nem dormindo vai me esquecer
     E
mais cedo ou mais tarde
  B9
você vai notar
       C#m7               A
que é inútil tentar me deixar

(refrão)
        E         B9
    meu anjo, meu sonho
        C#m7     A
    meu sol de verão
       E         B9
    me deixa, ser dono
       C#m7    A
    do seu coração

(repete)

(refrão)
        E         B9
    meu anjo, meu sonho
        C#m7     A
    meu sol de verão
       E         B9
    me deixa, ser dono
       C#m7    A
    do seu coração
        E    B9 C#m7 A9
    coração
Compositor D'Justiniano / Jairo Gois / Zé Maria 285 reproducciones
    • ½ Tom
    • A
    • Bb
    • B
    • C
    • Db
    • D
    • Eb
    • E
    • F
    • F#
    • G
    • Ab
  • Adicionar à lista

    0 comentarios

    Mostrar mais comentários
    00:00 / 00:00
    outros vídeos desta música
    repetir qualidade Automático
    Outros vídeos desta música
    00:00 / 00:00
    Automático
    OK