Cifra Club

Aprenda

O Cara Errado

João Neto e Frederico

Tablatura: Principal (guitarra)
Tom: D
(solo)
E|----------------------------------------|
B|----------------------------------------|
G|----------------------------------------|
D|----------------------------------------|
A|---5-5-5-5--7-7h9--9h7-5----------------|
E|---------------------------3-5-5h7------|

E|----------------------------------------------------------------|
B|----------------------------------------------------------------|
G|----------------------------------------------------------------|
D|-------------------------------------------------------------7--|
A|------5-5-5-5--7-7h9--9h7-5-5h7---------7h9-7h9--5-----5-7-9----|
E|-5-7-----------------------------9h7h5--------------------------|

D
Quando você foi embora
                A
Eu disse pra você
                                  G
Que esse cara só vai te fazer sofrer
Deixe de bobagem
                     D (A)
E escute o que eu digo
O amor que eu te dei
                A
Ele não vai te dar
                               G
Aposto que um dia você vai voltar
             A                    D
E vai pedir arrego pra ficar comigo
 A                                      G
Na hora que quebrar a cara vai me dar razão
                                  D
E descobrir que ele é só uma ilusão
                                    A
Porque não fez amor como você queria
                                             G
E ai você vai ver quem dorme com o cara errado
                                       D
E te deixa na mão depois de ter transado
       G            A      D
E não realiza suas fantasias

(INTR)

D
Quando você foi embora
                A
Eu disse pra você
                                  G
Que esse cara só vai te fazer sofrer
Deixe de bobagem
                     D
E escute o que eu digo
O amor que eu te dei
                A
Ele não vai te dar
                               G
Aposto que um dia você vai voltar
             A                    D
E vai pedir arrego pra ficar comigo
 A                                      G
Na hora que quebrar a cara vai me dar razão
                                  D
E descobrir que ele é só uma ilusão
                                    A
Porque não fez amor como você queria
                                             G
E ai você vai ver quem dorme com o cara errado
                                       D
E te deixa na mão depois de ter transado
       G            A      D
E não realiza suas fantasias

 B                                      A
Na hora que quebrar a cara vai me dar razão
                                  E
E descobrir que ele é só uma ilusão
                                    B
Porque não fez amor como você queria
                                             A
E ai você vai ver quem dorme com o cara errado
                                       E
E te deixa na mão depois de ter transado
       A            B      E
E não realiza suas fantasias

(solo final)
E|----------------------------------------|
B|----------------------------------------|
G|----------------------------------------|
D|----------------------------------------|
A|---5-5-5-5--7-7h9--9h7-5----------------|
E|---------------------------3-5-5h7------|

E|----------------------------------------------------------------|
B|----------------------------------------------------------------|
G|----------------------------------------------------------------|
D|----------------------------------------------------------------|
A|------5-5-5-5--7-7h9--9h7-5-5h7---------7h9-7h9--5--------------|
E|-5-7-----------------------------9h7h5--------------------------|
Colaboración y revision:
62 reproducciones
    • ½ Tom
    • A
    • Bb
    • B
    • C
    • Db
    • D
    • Eb
    • E
    • F
    • F#
    • G
    • Ab
  • Adicionar à lista

    0 comentarios

    Mostrar mais comentários
    00:00 / 00:00
    outros vídeos desta música
    repetir qualidade Automático
    Outros vídeos desta música
    00:00 / 00:00
    Automático
    OK