Cifra Club

Aprenda

O Fora

João Neto e Frederico

Tablatura: Principal (guitarra)
Tom: G
Intro: G  Em  Am  C  D
E|---------------7-8--7-7-7--7h8-7---------|
B|----------9-10--------------------10-8-7-|
G|-9-8-9-11--------------------------------|
D|-----------------------------------------|
A|-----------------------------------------|
E|-----------------------------------------|

E|---------------------------------------------------------|
B|-7/8-8-8-8-8h10-8-7-5-----5-5-5-5--8-5-3-----------------|
G|----------------------7------------------4-2-2/4---5p4-2-|
D|---------------------------------------------------------|
A|---------------------------------------------------------|
E|---------------------------------------------------------|

G                               Em
Cheguei atrasado pra um encontro de amor
                                 Am
Com alguém que eu queria muito  rever
                                 C
O tempo passou mais depressa que eu
                D                G
Em questão de minutos eu perdi você

  G                                 Em
Feito louco em meu carro rodei a cidade
                               Am
Pra ver se encontrava você por aí
                                C
De repente entrei em um lugar qualquer
            D                   G
E por coincidência você estava ali

  Em
Fiquei te olhando enquanto você dançava
 Am
Você me flertando enquanto ele te abraçava
          C                    D
E nesse impasse morrendo de desejo sem poder
         G    D
 fazer nada

      G
Ali parado tomando uma cerveja
          Em
Eu e a tristeza dividindo a mesa
            C                    D
Enquanto eu sofria entre um gole e outro
                G     D
O cara só te beijava

            G
No meu desespero entre o ciúme e a raiva
           Em
Feito um palhaço que levou o fora
             C                 D
Paguei minha conta olhei pra bandida
                        G
Entrei no carro e fui embora
Compositor Adriano Bernardes / Sergio Porto 32 reproducciones
    • ½ Tom
    • A
    • Bb
    • B
    • C
    • Db
    • D
    • Eb
    • E
    • F
    • F#
    • G
    • Ab
  • Adicionar à lista

    0 comentarios

    Mostrar mais comentários
    00:00 / 00:00
    outros vídeos desta música
    repetir qualidade Automático
    Outros vídeos desta música
    00:00 / 00:00
    Automático
    OK