Cifra Club

Aprenda

Por Ti

João Neto e Frederico

Tablatura: Principal (guitarra)
Tom: G
Intro: Am  C  G  Am  G
Solo:
E|----------------------------------------------------|
B|----------------------3h5-3-------------------------|
G|-----4-2---4-2---5-7--------5-4-2-0-----------------|
D|---5-----5-----5------------------------------------|
A|-5-----------------------------------5-3-2---3-0----|
E|-------------------------------------------3-----3--|


            Am
Preciso te encontrar
       C               G C G
Pra dizer tudo que sofri
                    Am              C
Quantas lágrimas rolaram no meu rosto
     G C G
Por ti
                     Am
A mais perfeita sintonia
C                    G C G
A mais estranha melodia
                           Am
Dois lados de uma mesma história
C                      G    C G
E uma pergunta sem resposta

Refrão:
           Am
Será que você me quer?
   C                         G   D Em
Será que nossa história tem volta?
            Am
E quando o amor vier
         C                      G   Am G
Por favor, não feche mais essa porta (2x)

( Am  C  G  Am  G )
Solo:
E|----------------------------------------------------|
B|----------------------3h5-3-------------------------|
G|-----4-2---4-2---5-7--------5-4-2-0-----------------|
D|---5-----5-----5------------------------------------|
A|-5-----------------------------------5-3-2---3-0----|
E|-------------------------------------------3-----3--|


          Am
Não posso mais
      C                        G   C G
Adormecer sem seus carinhos, agora
           Am
Sinto teu cheiro roçando
    C                  G   C G
Meu corpo tremendo de frio
                     Am
São tantas dúvidas para calar
C                    G    C G
Te olhar é sempre acalanto
                       Am
Me perco nesses passos sem pensar
C                  G    C G
Tudo é você e nada mais

Refrão:
           Am
Será que você me quer?
   C                         G   D Em
Será que nossa história tem volta?
            Am
E quando o amor vier
         C                      G   Am G
Por favor, não feche mais essa porta (2x)
Colaboración y revision:
  • Tiago Ponestke
33 reproducciones
    • ½ Tom
    • A
    • Bb
    • B
    • C
    • Db
    • D
    • Eb
    • E
    • F
    • F#
    • G
    • Ab
  • Adicionar à lista

    0 comentarios

    Mostrar mais comentários
    00:00 / 00:00
    outros vídeos desta música
    repetir qualidade Automático
    Outros vídeos desta música
    00:00 / 00:00
    Automático
    OK