Cifra Club

Aprenda

Pura Magia

João Neto e Frederico

Tablatura: Principal (guitarra)
Tom: B
Intro:B / G#m / E / F#]

Solo violão:
E|-----------------------------
B|1-1-1/3-1-0----------1-1-1/3-1-0--------
G|------ 2--2-4--4-5---------2--5/6-4-5--
D|------- 3---3------------3------
A|-----------------------------
E|-----------------------------

E|----------------------------
B|5-5-5/8-6-5--------5-5-5/8-6-5---3/5-0-3----
G|-------5-7-5-7-7-9------- 5-7-----5---
D|-----------------------------
A|----  --  ---  ---------------  ---
E|--------------------  --------

B       G#m      E         F#
 nosso amor é um conto uma lenda sem fim
B      G#m         E        F#
 uma história encantada pra você e pra mim
G#m  D#m        E        F#
 até mesmo as estrelas coladas no céu
G#m D#m       E        F#
 iluminam nós dois num barco de papel

B      G#m         E        F#
 nosso amor nos tirou de um lugar comum
B      G#m       E          F#
 não existem nós dois agora somos um
G#m      D#m      E       F#
 não há nada que possa separar nós dois
G#m     D#m      E       F#            B   B F# E
 nosso amor é o antes o agora e o depois
E             F#      D#m      G#m
 nosso amor é mito um caso irreal
       D#m     G#m  F#         B   B F# E
 se tornou imortal além da razão
E             F#       D#m       G#m
 nosso amor é tudo que ninguém viveu
    D#m    G#m    F#         B     F#
 só você e eu sabe o que é paixão

B            G#m                E
 meu bem não tem ninguém que me faz
            F#
Conhecer um mundo de fantasias
B      G#m          E
Você e eu e ninguém mais
        F#
Vive um amor que é pura magia
Compositor Everton Matos / Guilherme Bicalho / Rivanil
Colaboración y revision:
36 reproducciones
    • ½ Tom
    • A
    • Bb
    • B
    • C
    • Db
    • D
    • Eb
    • E
    • F
    • F#
    • G
    • Ab
  • Adicionar à lista

    0 comentarios

    Mostrar mais comentários
    00:00 / 00:00
    outros vídeos desta música
    repetir qualidade Automático
    Outros vídeos desta música
    00:00 / 00:00
    Automático
    OK