Cifra Club

Minha Estrela Perdida

João Paulo e Daniel

Tablatura: Principal (guitarra)
Tono: D
[Intro]  D  A/C#  Bm  Bm/A  G  Em  A
         D  A/C#  Bm  Bm/A  G  Em  A

E|2-00-------2-00--------0-2-3-2 2-00----0---------|
B|----3-3-2-3-----3-3-2-3-------------3-3--3-2-----|
G|-------------------------------------------------|
D|-------------------------------------------------|
A|-------------------------------------------------|
E|-------------------------------------------------|

E|-14b-12-12-------------14b-12-12--------------12-14-15-14-14-12-12-------12------|
B|----------15-15-14-15b-----------15-15-14-15b----------------------15-15----15-14|
G|---------------------------------------------------------------------------------|
D|---------------------------------------------------------------------------------|
A|---------------------------------------------------------------------------------|
E|---------------------------------------------------------------------------------|

   D                 A/C#
Você vai rir, quando eu pedir
     G            A
Prá me fazer mais um favor
     D              A/C#
Deixa eu sonhar, acreditar
     G              A
Mais uma vez, num grande amor

 D                          A/C#            Bm
Mente que eu finjo que acredito no seu coração
              Bm/A              G
Conte uma mentira prá minha paixão
               D/F#            Em     A
Diz que ainda sou o que você mais quis
 D                        A/C#              Bm
Mente que eu sou o sonho lindo que você sonhou
              Bm/A              G
Que a vida inteira você me esperou
              D/F#              Em  A7
Basta seu sorriso pra me ver feliz

       D
Só um beijo e nada mais
  A/C#  Bm
Prá deixar você em paz
Bm/A     G          Em          A
E encontrar a minha estrela perdida
       D
Só um sonho e nada mais
 A/C#   Bm
Depois disso tanto faz
Bm/A  G              Em         A
Uma  noite pra esquecer de uma vida
                  D
Minha estrela perdida

[Solo]  D  A/C#  Bm  Bm/A  G  Em  A
        D  A/C#  Bm  Bm/A  G  Em  A

E|2-0-0---------2-0-0---------0-2-3-2-2-0-0-----0-----|
B|------3-3-2-3-------3-3-2-3---------------3-3---3-2-|
G|----------------------------------------------------|
D|----------------------------------------------------|
A|----------------------------------------------------|
E|----------------------------------------------------|

E|-14-12-12------------14-12-12-------------12-14-15-14-14-12-12-------12--------|
B|---------15-15-14-15----------15-15-14-15----------------------15-15----15-14--|
G|-------------------------------------------------------------------------------|
D|-------------------------------------------------------------------------------|
A|-------------------------------------------------------------------------------|
E|-------------------------------------------------------------------------------|

 D                          A/C#            Bm
Mente que eu finjo que acredito no seu coração
              Bm/A              G
Conte uma mentira prá minha paixão
               D/F#            Em     A
Diz que ainda sou o que você mais quis
 D                        A/C#              Bm
Mente que eu sou o sonho lindo que você sonhou
              Bm/A              G
Que a vida inteira você me esperou
              D/F#              Em  A7
Basta seu sorriso pra me ver feliz

       D
Só um beijo e nada mais
  A/C#  Bm
Prá deixar você em paz
Bm/A     G          Em          A
E encontrar a minha estrela perdida
       D
Só um sonho e nada mais
 A/C#   Bm
Depois disso tanto faz
Bm/A  G              Em         A
Uma  noite pra esquecer de uma vida
                  D
Minha estrela perdida

       D
Só um beijo e nada mais
  A/C#  Bm
Prá deixar você em paz
Bm/A     G          Em          A
E encontrar a minha estrela perdida
       D
Só um sonho e nada mais
 A/C#   Bm
Depois disso tanto faz
Bm/A  G              Em         A
Uma  noite pra esquecer de uma vida
                  D
Minha estrela perdida

       D
Só um beijo e nada mais
  A/C#  Bm
Prá deixar você em paz
Bm/A     G          Em          A
E encontrar a minha estrela perdida
       D
Só um sonho e nada mais
 A/C#   Bm
Depois disso tanto faz
Bm/A  G              Em         A
Uma  noite pra esquecer de uma vida
                  D
Minha estrela perdida
reproducciones 511
Acordes para:
    Compositor: César Augusto / Piska Colaboración y revision:
    • Lucas Kappaun
    • Gleidson Souza
    • Wellington Demarchi

    0 comentarios

    mostrar más comentarios

    ¿Conseguiste tocar?

    16 tocaron 3 aún no

    ¡Graba un vídeo tocando Minha Estrela Perdida y envianoslo!

    00:00 / 00:00
    outros vídeos desta música
    repetir qualidade Automático
    Outros vídeos desta música
    00:00 / 00:00
    Automático
    OK