Cifra Club

Poeira da Estrada

João Paulo e Daniel

Tablatura: Principal (guitarra)
Tom: A (con acordes en la forma de G) Capo en 2ª casa
E|-2-7-7-7-7--6----6--4-4-4--2---2-4-4-2--2---2-2-2-2---|
B|-4/9-9-9-9--7----7--5-5-5--4---4-5-5-4--4---2-2-2-4---|
G|------------------------------------------------------|
D|------------------------------------------------------|
A|------------------------------------------------------|
E|------------------------------------------------------|

E|-2-7-9--7-6-7-6-4-6-4-2----2-2-2-4-4/6-9--4-2-4-2-----|
B|-4/9-11-9-7-9-7-5-7-5-4----2-4-4-5-5/7-11-5-4-5-4-4---|
G|--------------------------------------------------4---|
D|------------------------------------------------------|
A|------------------------------------------------------|
E|------------------------------------------------------|

            A
Levantei a tampa voltei ao passado
                                  E
Meu mundo guardado dentro de um baú

Encontrei no fundo todo empoeirado
                                A
O meu velho laço bom de couro cru

Me vi no arreio do meu alazão
             A7               D
Berrante na mão no meio da boiada
                            A
Abracei o laço velho companheiro
                              B7
Bateu a saudade, veio o desespero
             D         E           A
Sentindo o cheiro da poeria da estrada

            E       D        A
Estrada que era vermelha de terra
                  E                    A
Que o progresso trouxe o asfalto e cobriu
             E       D      A
Estrada que hoje chama rodovia
                 E                A
Estrada onde um dia meu sonho seguiu
            D              A
Estrada que antes era boiadeira
             E                       A
Estrada de poeira, de sol, chuva e frio
               D                  A
Estrada ainda resta um pequeno pedaço
             E                    A
A poeira do laço que ainda não saiu

A
Poeira da estrada, só resta a saudade
                         E
Poeira na cidade é a poluição

Não se vê vaqueiros tocando boiada
                            A
Trocaram o cavalo pelo caminhão

E quando me bate saudade do campo
                 A7               D
Pego a viola e canto a minha solidão
                               A
Não me resta muito aqui na cidade
                                B7
E quando a tristeza pena de verdade
            D            E        A
Eu mato a saudade nas festas de peão

            E       D        A
Estrada que era vermelha de terra
                  E                    A
Que o progresso trouxe o asfalto e cobriu
             E       D      A
Estrada que hoje chama rodovia
                 E                A
Estrada onde um dia meu sonho seguiu
            D              A
Estrada que antes era boiadeira
             E                       A
Estrada de poeira, de sol, chuva e frio
               D                  A
Estrada ainda resta um pequeno pedaço
             E                    A
A poeira do laço que ainda não saiu
reproducciones 448
Acordes para:

    0 comentarios

    mostrar más comentarios

    ¿Conseguiste tocar?

    14 tocaron 4 aún no

    ¡Graba un vídeo tocando Poeira da Estrada y envianoslo!

    00:00 / 00:00
    outros vídeos desta música
    repetir qualidade Automático
    Outros vídeos desta música
    00:00 / 00:00
    Automático
    OK