Cifra Club

19 Dias Y 500 Noches

Joaquín Sabina

Cifrado: Principal (guitarra y guitarra eléctrica)
Selo Cifra Club: esta cifra foi revisada para atender aos critérios oficiais da nossa Equipe de Qualidade.
tono: E
[Intro]

E|--12-12-12-10--8----10-10/12-10--8-8/10/8h7---------------------|
B|------------------------------------------------9---10--11--12--|
G|----------------------------------------------------------------|
D|-----------------------------------------------9----11--12--13--|
A|----------------------------------------------------------------|
E|----------------------------------------------------------------|

E|----------------------------------------------------------------|
B|------7-----7--9--10--9--7--5-----------------------------------|
G|----8-----------------------------------------------------------|
D|--7---------7--9--11--9--7--6-----6-7-8-9--9-11-12-13-----------|
A|----------------------------------------------------------------|
E|----------------------------------------------------------------|

[Primeira Parte]

                E                          C#º
Lo nuestro duró,   lo que duran dos peces de hielo
                  F#m                  B7
En un güisqui on the rocks, en vez de fingir
                                              E
O, estrellarme una copa de celos, le dio por reír

                    E7
De pronto me vi, como un perro de nadie
                              A
Ladrando, a las puertas del cielo

    Am                      E
Me dejó un neceser con agravios
    C#7         F#m   B7
La miel en los labios
                       E
Y escarcha en el pelo

E|----------------------------------------------------------------|
B|--9-10-11-12--12-14-15-16---------------------------------------|
G|----------------------------------------------------------------|
D|----------------------------------------------------------------|
A|----------------------------------------------------------------|
E|----------------------------------------------------------------|

E|----------------------------------------------------------------|
B|----------------------------------------------------------------|
G|----------------------------------------------------------------|
D|--6-7--8--9---9--11-12-13---------------------------------------|
A|----------------------------------------------------------------|
E|----------------------------------------------------------------|

[Segunda Parte]

              E                         C#º
Tenían razón, mis amantes en eso de que, antes
            F#m            B7
El malo era yo, con una excepción
                                            E
Esta vez, yo quería quererla querer y ella no

Así que se fue, me dejó el corazón
                       A
En los huesos y yo de rodillas
 Am                           E
Desde el taxi, y, haciendo un exceso
              F#m     B7
Me tiró dos besos
                E
Uno por mejilla

     A
Y regresé

A la maldición

Del cajón sin su ropa
A la perdición
De los bares de copas
A las cenicientas
De saldo y esquina
Y, por esas ventas
Del fino Laina
Pagando las cuentas
De gente sin alma
Que pierde la calma
            E
Con la cocaína
     F#m
Volviéndome loco
     A
Derrochando
               B7
La bolsa y la vida

La fuí, poco a poco
                   E
Dando por perdida

A
Y eso que yo
Paro no agobiar con
Flores a María
Para no asediarla
Con mi antología
De sábanas frías
Y alcobas vacías
Para no comprarla
Con bisutería
Ni ser el fantoche
Que va en romería
Con la cofradía

             E
Del Santo Reproche
           B7
Tanto la quería
      F#m
Que tardé en aprender
                        B7
A olvidarla diecinueve días
               E   (Riff)
Y quinientas noches

                E
Dijo hola y adiós y el portazo sonó
          C#º               F#m
Como un signo de interrogación
                B7
Sospecho que así
F#m                            B7
Se vengaba a través del olvido
           E
Cupido de mi

E
No pido perdón
         E7
¿Para qué? Si me va a perdonar
                      A
Porque ya no le importa
         Am                 E
Siempre tuvo la frente muy alta
                F#m   B7
La lengua muy larga
                     E
Y la falda muy corta

A
Me abandonó
Como se abandonan
Los zapatos viejos
Destrozó el cristal
De mis gafas de lejos
Sacó del espejo
Su vivo retrato
Y fui tan torero
Por los callejones
Del juego y el vino
Que ayer el portero
Me echó del casino
                E
De Torrelodones 
             B7
Qué pena tan grande
F#m
Negaría el Santo Sacramento
      B7
En el mismo momento
               E        E7
Que ella me lo mande

A
Y eso que yo
Paro no agobiar con
Flores a María
Para no asediarla
Con mi antología
De sábanas frías
Y alcobas vacías
Para no comprarla
Con bisutería
Ni ser el fantoche
Que va en romería
Con la cofradía
               E
Del Santo Reproche
            B7
Tanto la quería
    F#m
Que tardé en aprender
          B7
A olvidarla diecinueve días
                E
Y quinientas noches

E|----------------------------------------------------------------|
B|----------------------------------------------------------------|
G|----------------------------------------------------------------|
D|--6-7--8--9---9--11-12-13---------------------------------------|
A|----------------------------------------------------------------|
E|----------------------------------------------------------------|
            B7           E
E|----------2-------------0---------------------------------------|
B|----------4-------------0---------------------------------------|
G|----------2-------------1---------------------------------------|
D|----------4-------------2---------------------------------------|
A|----------2-------------2---------------------------------------|
E|------------------------0---------------------------------------|
Otros videos de esta canción
    56.369 exhibiciones
      • ½ Tono
      • A
      • Bb
      • B
      • C
      • Db
      • D
      • Eb
      • E
      • F
      • F#
      • G
      • Ab
    • Agregar a la lista

    Afinação da cifra

    Afinador online

      Ops (: Contenido disponible solo en portugués.
      OK