Cifra Club

American Dragon

Joe Jonas

Cifrado: Principal (guitarra y guitarra eléctrica)
tono: G
Verso:
E|--------------------------------------------------------------------|
B|--------------------------------------------------------------------|
G|--9-9-9-9-9-9-9-9----------------------------9-9-9-9-9-9-9-9--------|
D|--9-9-9-9-9-9-9-9-(x4)-7-7-7-7-7-7-7-7-(x2)--9-9-9-9-9-9-9-9-(x2)---|
A|--7-7-7-7-7-7-7-7------7-7-7-7-7-7-7-7-------7-7-7-7-7-7-7-7--------|
E|--0-0-0-0-0-0-0-0------5-5-5-5-5-5-5-5-------0-0-0-0-0-0-0-0--------|

Pré-Refrão:
E|--------------------------------------------------------------------------|
B|--------------------------------------------------------------------------|
G|-------------------6-6-6-6-6-6-6-6----------------------------------------|
D|-7-7-7-7--6-6-6-6--6-6-6-6-6-6-6-6--7-7-7-7--6-6-6-6--7-7-7-7-7-7-7-7--9--|
A|-7-7-7-7--6-6-6-6--4-4-4-4-4-4-4-4--7-7-7-7--6-6-6-6--7-7-7-7-7-7-7-7--9--|
E|-5-5-5-5--4-4-4-4-------------------5-5-5-5--4-4-4-4--5-5-5-5-5-5-5-5--7--|

E|----------------------------------------|
B|----------------------------------------|
G|--9-9-9-9-------------------------------|   (4x)
D|--9-9-9-9--6-6-6-6--7-7-7-7--9-9-9-9----|
A|--7-7-7-7--6-6-6-6--7-7-7-7--9-9-9-9----|
E|--0-0-0-0--4-4-4-4--5-5-5-5--7-7-7-7----|

Pré-Refrão:
E|-----------------------------------------------------------------------|
B|-----------------------------------------------------------------------|
G|--------------------6-6-6-6-6-6-6-6------------------------------------|
D|--7-7-7-7--6-6-6-6--6-6-6-6-6-6-6-6---7-7-7-7-7-7-7-7--9-9-9-9-9-9-9-9-|
A|--7-7-7-7--6-6-6-6--4-4-4-4-4-4-4-4---7-7-7-7-7-7-7-7--9-9-9-9-9-9-9-9-|
E|--5-5-5-5--4-4-4-4--------------------5-5-5-5-5-5-5-5--7-7-7-7-7-7-7-7-|

Refrão:
E|----------------------------------------|
B|----------------------------------------|
G|--9-9-9-9-------------------------------|   (3x)
D|--9-9-9-9--6-6-6-6--7-7-7-7--9-9-9-9----|
A|--7-7-7-7--6-6-6-6--7-7-7-7--9-9-9-9----|
E|--0-0-0-0--4-4-4-4--5-5-5-5--7-7-7-7----|

E|--------------------------|
B|--------------------------|
G|--9-9-9-9-----------9~~~--|
D|--9-9-9-9--9-9-9-9--9~~~--|
A|--7-7-7-7--9-9-9-9--7~~~--|
E|--0-0-0-0--7-7-7-7--0~~~--|

Intro :                          "Were not braggin"
E|---7~~--7~~--------------------|-----------------------|
B|--10b~-10b~--10-8--------------|----------8----8/10~~~-|
G|-------------------9~-9~~~-----|--10~-10~---10---------|
D|-------------------------------|-----------------------|
A|-------------------------------|-----------------------|
E|-------------------------------|-----------------------|

E|--4~~--4~~------------------------------|
B|--7b~--7b~--7--5~5~~~-------------------|
G|----------------------------------------|
D|----------------------------------------|
A|----------------------------------------|
E|----------------------------------------|

Refrão:
E|---7~~--7~~----------------|--12~~---14~~------|
B|--10b~-10b~--10-8----------|--15b~---17b~------|
G|------------------9~-9~~~--|-------------------|
D|---------------------------|-------------------|
A|---------------------------|-------------------|
E|---------------------------|-------------------|

E|-----4-4-4----2-2-2---0-0-0--------------|
B|-------------------------------3---2-0-0-|
G|--/4--------4-------4--------4---4-------|
D|-----------------------------------------|
A|-----------------------------------------|
E|-----------------------------------------|

E|-------------------------------------------------|
B|-------------------------------------------------|
G|-----13-13-13---11-11-11---9-9-9-----------------|
D|--/9----------9----------9-------9-12-9-11-9-9~--|
A|-------------------------------------------------|
E|-------------------------------------------------|

E|-----------------------------|
B|--15b~~~~~~~~~---------------|
G|-----------------------------|
D|-----------------------------|
A|-----------------------------|
E|-----------------------------|

Final:
E|--12~~~---------------------------|
B|--15b~r--12-----------------------|
G|------------14br--12h13-----------|
D|-------------------------14~~~~---|
A|----------------------------------|
E|----------------------------------|
Compositor no encontrado.
Colaboración y revisión:
  • alice correa
18 vistas
    • ½ Tono
    • A
    • Bb
    • B
    • C
    • Db
    • D
    • Eb
    • E
    • F
    • F#
    • G
    • Ab
  • Agregar a la lista

    0 comentarios

    Ver todos los comentarios

    ¿Lograste tocar?

    2 Tocaron 0 Aún no

    ¡Graba un video tocando American Dragon y envíanoslo!

    00:00 / 00:00
    Otros videos de esta canción
    Repetir Calidad Automático
    Otros videos de esta canción
    00:00 / 00:00
    Automático
    OK