Cifra Club

All Alone

Joe Satriani

Cifrado: Principal (guitarra y guitarra eléctrica)
tono: Em
(intro)

E|--------------------5-----------------|----------------------------------------|
B|----------------------5~~-------------|----------------------------------------|
G|--------------------------------------|-----5--5s7-----------------------------|
D|----------------7---------------------|------------7s9s7s5-----5h7-------------|
A|--------------------------------------|----------------------------------------|
E|--------------------------------------|----------------------------------------|
                                                      slide      hammer on
|------------0---------5----------------|----------------------------------------|
|---------0--------------5~~------------|----------------------------------------|
|-------5-------------------------------|-5--5s7-------------------5-------------|
|----7-------------7--------------------|---------7s9-7s9s7s5--5h7---7-----------|
|---------------------------------------|----------------------------------------|
|---------------------------------------|----------------------------------------|
   A.H.                                                       hammer on pull off
|---------------------------------------|-----------------------5----------------|
|---------------------------------------|----------------------------------------|
|---------------5--7---7s9--(9)b~~------|-5s9s5---5s7s5--(5)~~------7h8p7p5---7--|
|------------7--------------------------|----------------------------------------|
|-----3---------------------------------|----------------------------------------|
|--5------------------------------------|----------------------------------------|

|---------------------------------------|------17--------------------------------|
|---------------------------------------|----------------------------------------|
|---------------------------------------|---------19b~~-----17--17s19~~----------|
|---7s10-----7s9s7--(7)s5s7-------------|--19------------------------------------|
|---------s7----------------------------|----------------------------------------|
|---------------------------------------|----------------------------------------|

|---------------------------------------|-----------------------17---------------|
|---------------------------------------|----------------------------------------|
|---------------------------------------|-----------------------------19b--------|
|---------------------------17----------|------------------19--------------------|
|--19s21--19s21--19--17--19----19~~-----|--17b--15-------------------------------|
|---------------------------------------|----------17----------------------------|

|---------------------------------------|----------------------------------------|
|---------------------------------------|----------------------------------------|
|--17--17s19----------------------------|------------------17--------------------|
|-------------19s21-19s21--19---17------|-17s19~~--17s19~~----17-19~~------------|
|---------------------------------------|----------------------------------------|
|---------------------------------------|----------------------------------------|

|---------------------------------------|--5-------------------------------------|
|---------------------------------------|----------------------------------------|
|---------------------------------------|----7h8p7p5---7~~~~---------------------|
|---------------------------------------|----------------------7s10-----7s9--7~~-|
|-------3---5-5b--~~-5b-(5)p3-3b-(3)~~--|---------------------------7------------|
|---5-----------------------------------|----------------------------------------|

|-----------------------------3---------|----------------------------------------|
|-----------------------------0---------|------8-8--8s6--6-6--6s8--6s5--5--------|
|-----------2--2--2--2--2-----0---------|----------------------------------------|
|-----------2--2--2--2--2-----0---------|------5-5--5s3--3-3--3s5--3s2--2--------|
|---3p0-3b--0--0--0--0--0---------------|----------------------------------------|
|-----------------------------3---------|----------------------------------------|

|-------------------17------------------|--3-------------------------------------|
|--------------20b~~--20-17-------------|--0---8-8--8s6--6-6--6sb--6s5--5~~~~5---|
|--2-----2------------------19b-17~~----|--0-------------------------------------|
|--2-----2------------------------------|--0---5-5--5s3--3-3--3s5--3s5--2~~~~2---|
|--0--3b---0----------------------------|----------------------------------------|
|-----------------------------------(8)s|--3-------------------------------------|

|-------5-------------------------------|--------------------------5-------------|
|----------5~~--------------------------|------------------------5--8-5----------|
|---------------5-5s7-------------------|----------------------7b-------7b-5-----|
|---7-----------------7s9-7s9s7s5-------|-5h7---------7-----7----------------7---|
|---------------------------------------|-0----0-0--0-0-0-0----------------------|
|---------------------------------------|----------------------------------------|

|----------0--0------5----5---------5-8-|5-----------5--------5------------------|
|----------0--0-------8---5-----------8-|5-------------8-5------8-5--------------|
|--------7----5--7b~~-------7-(7)b~~----|--7b-7b(7)~~------7b-------7b-5---7---5-|
|-7~~----5------------------------------|--------------------------------7---7---|
|-----0--0------------------------------|----------------------------------------|
|---------------------------------------|----------------------------------------|

|-------------------------5------5------|-5----7p(7)5----5-----------------------|
|---------------------------------------|---5----------8---8-5-------------------|
|--------5--7p5-7p5---7b-----7b---7b~~--|----------------------7bp-7(7)5---7p5---|
|-7-7~~7--------------------------------|--------------------------------7-------|
|---------------------------------------|----------------------------------------|
|---------------------------------------|----------------------------------------|

|---------------------0------------0----|-------------------3s5-5-5-5-5------5-5-|
|---------------------0------------0-0--|-------------------3s5-5-5-5-5--3s5-5-5-|
|-------------------5-----------5--5----|----------------------------------------|
|-7p5-------------------7---5h7---------|-7-7--5-7-5-5---------------------------|
|-----5p0--3--0--0--------7-------------|----------------------------------------|
|---------------------------------------|----------------------------------------|

|-5s8s5-3s5-5~~5-5--------------5-------|----------------------------------------|
|-5s8s5-3s5-5--5-----8---8p5-----5------|----------------------------------------|
|------------------0---0-----7b----7b---|-5--5-----5~~7p5-7bp(7)5----0-5p0-7p5---|
|---------------------------------------|--7--7~~7----------------7--0-----------|
|---------------------------------------|----------------------------------------|
|---------------------------------------|----------------------------------------|

|---------------------------------------|-5----------5---------------------------|
|---------------5-8---------------------|---8p5--------8p5-----------------------|
|-7p5--7b-----------7bp(7)5------5-7b7b-|--------7b--------7b---7bp(7)5----------|
|-----------------------------7---------|---------------------0----------7~~-----|
|---------------------------------------|----------------------------------------|
|---------------------------------------|----------------------------------------|

|---------------------------------------|-3--------------------------------------|
|---------------------------------------|-0---8--8--8s6--6--6-6s8--6s5--5--------|
|-----------2------2---2------2--2------|-0--------------------------------------|
|-----------2------2---2------2--2------|-0---5--5--5s3--3--3-3s5--3s2--2--------|
|-0---3-----0--3b--0---0--3b--0--0------|----------------------------------------|
|---------------------------------------|-3--------------------------------------|
                            palm mute
|---------------------------x-----------|-3--------------------------------------|
|------------20b-(20)~~20b~~x-----------|-0---8--8--8s6--6--6-6s8--6s5--5~(5)~(2)|
|-2-----2--------------20b~~------------|-0--------------------------------------|
|-2-----2-------------------------------|-0---5--5--5s3--3--3-3s5--3s2--2~(5)~(2)|
|-0--3--0-------------------------------|----------------------------------------|
|---------------------------------(7)s--|-3--------------------------------------|

|------------5--------------------------|-----------0-9----------5---------------|
|--------------5------------------------|----------------------------5~~~~-------|
|--------7----------5--5s7--------------|--------x-------------------------------|
|--------------------------7s9-7s9s7s5--|5s7---7-------------7-------------------|
|---------------------------------------|----------------------------------------|
|-0--0----------------------------------|----------------------------------------|

|---------------------------------------|----------------------------------------|
|---------------------------------------|----------------------------------------|
|-5s7------------5----------------------|----------------------------------------|
|-----7s9s7s5--7---7--------------------|----------------------------------------|
|-----------------------5bp(5)3---------|---3---5--5b---(5)~~5bp(5)3---3b~~~~----|
|--------------------------------5------|5---------------------------------------|

|--5------------------------------------|----0----5------------------------------|
|---------------------------------------|----0-----------------------------------|
|-----7h8p7p5-7~~~~---------------------|----5------7h8p7p5--7-------------------|
|------------------7s10---7h9(9)h7------|----7--------------------7s10-----------|
|-----------------------7---------------|--0----------------------------7--------|
|---------------------------------------|----------------------------------------|

|-----------------------5---------------|----------------------------------------|
|---------------------------------------|----------------------------------------|
|-------------------------7h8p7p5--7~~~~|(7)-------------------------------------|
|-7h9----(9)b(9)p7----------------------|-----7s10-----10s2----------------------|
|-------------------0-------------------|----------------------------------------|
|---------------------------------------|----------------------------------------|

|---------------0---------------0-------|----------------------------------------|
|----------0------0---------------------|-------0------------0-------------------|
|-------5----5--------------5-----------|----5-----5------5-----5------5---------|
|--------------------7----7-------------|--------------------------7-------------|
|---0-------------------0---------------|-0------------0-------------------------|
|---------------------------------------|----------------------------------------|
00:00 / 00:00
Otros videos de esta canción
Repetir
Otros videos de esta canción
Composición de Eric Dolphy / Mal Waldron
Colaboración y revisión:
  • Paulo Ricardo
269 vistas
    • ½ Tono
    • Am
    • Bbm
    • Bm
    • Cm
    • C#m
    • Dm
    • Ebm
    • Em
    • Fm
    • F#m
    • Gm
    • G#m
  • Agregar a la lista

    0 comentarios

    Ver todos los comentarios

    ¿Lograste tocar?

    0 Tocaron 0 Aún no

    ¡Graba un video tocando All Alone y envíanoslo!

    00:00 / 00:00
    OK