Cifra Club

Always With Me, Always With You

Joe Satriani

Cifrado: Principal (guitarra y guitarra eléctrica)
tono: B
(Guitarra Solo)

Primeira Parte:

E|---------------------------------------------------
B|-4---5---5/7~~-----7/9~---7---5--4--5--------------
G|---------------------------------------4/6~~-------
D|---------------------------------------------------
A|---------------------------------------------------
E|---------------------------------------------------

E|---------------------------------------------------
B|---------------------------------------------------
G|-\4--6--6/8~---8h9~---8---6------------------------
D|------------------------------4~~------------------
A|---------------------------------------------------
E|---------------------------------------------------

   P.M.  .        .     .
E|---------------------------------------------------
B|---------------------------------------------------
G|----------4~~------------4/6~~----6/8\6~~----------
D|-4--x--4--------4--x--4----------------------------
A|---------------------------------------------------
E|---------------------------------------------------

   P.M.
E|---------------------------------------------------
B|-----4---5---7--7/9\7-----\5-----p4-----\2---------
G|-4--------------------------------------------2/4~-
D|---------------------------------------------------
A|---------------------------------------------------
E|---------------------------------------------------

E|--------------------7-x-7-----------9----9----9-11-
B|-4--5--5/7~--7/9~---------9/11~~------12---12------
G|---------------------------------------------------
D|---------------------------------------------------
A|---------------------------------------------------
E|---------------------------------------------------

E|-12/14~~---11----------------b19r18p16------18-----
B|---------------14--14b16~~~-------------19------19-
G|---------------------------------------------------
D|---------------------------------------------------
A|---------------------------------------------------
E|---------------------------------------------------

E|-16--19b21~~-19----------16p14p12\11-14-12p11------
B|-----------------17b19~~----------------------14~~-
G|---------------------------------------------------
D|---------------------------------------------------
A|---------------------------------------------------
E|---------------------------------------------------

E|-19-----------18----16-----------------------------
B|---------------------------19b21r-19~~-------------
G|----18b20r18-----16----16--------------------------
D|---------------------------------------------------
A|---------------------------------------------------
E|---------------------------------------------------

Segunda Parte:

E|----21b22r21~-14b15r14~-12p10h12p10-------15/17-14~
B|-12---------------------------------14-12----------
G|---------------------------------------------------
D|---------------------------------------------------
A|---------------------------------------------------
E|---------------------------------------------------

E|-9b¼r9~~-7----7------------------------------------
B|-----------10---10p8p7-----------------------------
G|-----------------------9p7p6h7h9~~-6h7h9p7p6\4h7~~-
D|---------------------------------------------------
A|---------------------------------------------------
E|---------------------------------------------------

E|---------------------------------------------------
B|---------------------------------------------------
G|-6h7p6p4---4-----------4---------------------------
D|---------7---7p5p4h5h7---7p5p4---------------------
A|-------------------------------7p5p4~~-------------
E|---------------------------------------------------

   H.A
E|---------------------------------------------------
B|------------------------------------12h14h15p14p12-
G|---------------------------11h12h14----------------
D|-11b12r11~~-------11h12h14-------------------------
A|------------12h14----------------------------------
E|---------------------------------------------------

E|-------------------------------14b15r14~-----------
B|---------------------/12~~--12---------------------
G|-14p12p11-12/15~~\------------------------\11------
D|---------------------------------------------------
A|-----------------------------------------------\9~~
E|---------------------------------------------------

E|----------------14b15r14~---12p11---\9---\7--\6~---
B|-14b15r14-12~--------------------------------------
G|---------------------------------------------------
D|---------------------------------------------------
A|---------------------------------------------------
E|---------------------------------------------------

Terceira Parte:

E|-11--12--12/14~~--14/16~--14---12--11--12----------
B|-------------------------------------------12/14~~-
G|---------------------------------------------------
D|---------------------------------------------------
A|---------------------------------------------------
E|---------------------------------------------------

E|---------------------------------------------------
B|-\12--14--16~~--16b17r16p14------------------------
G|---------------------------------------------------
D|-----------------------------16~~------------------
A|---------------------------------------------------
E|---------------------------------------------------

E|---------------------------------------------------
B|---------12~-----------12/14~~--14/16--14~~--------
G|-11---11-------11---11-----------------------------
D|---------------------------------------------------
A|---------------------------------------------------
E|---------------------------------------------------

E|-11--12--14--16~~--14--12--11--\9--\7~~------------
B|---------------------------------------------------
G|---------------------------------------------------
D|---------------------------------------------------
A|---------------------------------------------------
E|---------------------------------------------------

       T       T       T       T       T       T
E|---------------------------------------------------
B|-h11h12p0-h9h12p0-h7h12p0-h9h12p0-h5h12p0-h7h12p0--
G|---------------------------------------------------
D|---------------------------------------------------
A|---------------------------------------------------
E|---------------------------------------------------

      T       T       T       T       T       T
E|---------------------------------------------------
B|-h9h12p0-h7h12p0-h5h12p0-h7h12p0-h7h12p0-h7h12p0---
G|---------------------------------------------------
D|---------------------------------------------------
A|---------------------------------------------------
E|---------------------------------------------------

       T        T       T       T       T       T
E|---------------------------------------------------
B|-h11h12p0-h11h12p0-h9h12p0-h7h12p0-h9h12p0-h7h12p0-
G|---------------------------------------------------
D|---------------------------------------------------
A|---------------------------------------------------
E|---------------------------------------------------

      T       T       T       T       T       T
E|---------------------------------------------------
B|-h5h12p0-h7h12p0-h9h12p0-h7h12p0-h5h12p0-h4h12p0---
G|---------------------------------------------------
D|---------------------------------------------------
A|---------------------------------------------------
E|---------------------------------------------------

      T       T       T       T
E|---------------------------------------------------
B|-h2h12p0-h2h12p0-h2h12p0-h2h12p0-------------------
G|---------------------------------------------------
D|---------------------------------------------------
A|---------------------------------------------------
E|---------------------------------------------------

       T        T       T       T       T       T
E|---------------------------------------------------
B|-h11h12p0-h11h12p0-h9h12p0-h7h12p0-h9h12p0-h7h12p0-
G|---------------------------------------------------
D|---------------------------------------------------
A|---------------------------------------------------
E|---------------------------------------------------

      T       T       T       T       T       T
E|---------------------------------------------------
B|-h5h12p0-h7h12p0-h9h12p0-h7h12p0-h5h12p0-h4h12p0---
G|---------------------------------------------------
D|---------------------------------------------------
A|---------------------------------------------------
E|---------------------------------------------------

      T       T       T       T
E|---------------------------------------------------
B|-h5h12p0-h5h12p0-h5h12p0-h5h12p0-------------------
G|---------------------------------------------------
D|---------------------------------------------------
A|---------------------------------------------------
E|---------------------------------------------------

E|---------------------------------------------------
B|-7/9~--7-9-12-12/14~--12-14--14/17~---17/19---19~\-
G|-6/8~--6-8-11-11/13~--11-13--13/16~---16/18---18~\-
D|---------------------------------------------------
A|---------------------------------------------------
E|---------------------------------------------------

Quarta Parte:

E|-/19-19~~p16------------19b21r19p16----------------
B|--------------19-16~~----------------19-16~~-------
G|---------------------------------------------------
D|---------------------------------------------------
A|---------------------------------------------------
E|---------------------------------------------------

E|-21b23r21p19-21~~---------------4------------------
B|----------------------------------7p4-----4--------
G|---------------------6b8r-6b8~~-------6b8---7p6p4--
D|---------------------------------------------------
A|---------------------------------------------------
E|---------------------------------------------------

E|------4---------4----------------------------------
B|--------7p4-----4----------------------------------
G|-6b8~-------6b8---7p6p4----------------------------
D|------------------------6p4------------------------
A|----------------------------6p5p4\2/4~~------------
E|---------------------------------------------------

E|-----14----------------------------------------------
B|-----------16b17r16b17r16\--14-12-14-12\11----11~~-
G|--------16---------------------------------13------
D|-/14-----------------------------------------------
A|---------------------------------------------------
E|---------------------------------------------------

E|--------------------------21b23r21-19~-21b23-------
B|-11h12p11\9h11p9\7\5-5h7~--------------------------
G|---------------------------------------------------
D|---------------------------------------------4/6\4~
A|---------------------------------------------------
E|---------------------------------------------------

Final:

E|---------------------------------------------------
B|-4---5---5/7~~-----7/9~--\7--\5-\4-/5---\2---------
G|---------------------------------------------------
D|---------------------------------------------------
A|---------------------------------------------------
E|---------------------------------------------------

E|---------------------------------------------------
B|---------------------------------------------------
G|-4--6--8~-----8h9~--\8--\6------------------------
D|------------------------------4~~------------------
A|---------------------------------------------------
E|---------------------------------------------------

   P.M.  .  .     .     .
E|---------------------------------------------------
B|---------------------------------------------------
G|----------4~~------------4/6~~----6/8\6~~----------
D|-4--x--4--------4--x--4----------------------------
A|---------------------------------------------------
E|---------------------------------------------------

   P.M.
E|---------------------------------------------------
B|-----4---5---7--7/9\7-----\5-----\4-----\2---------
G|-4--------------------------------------------2/4~-
D|---------------------------------------------------
A|---------------------------------------------------
E|---------------------------------------------------

   P.M.
E|---------------------------------------------------
B|----4---5---7---7/9~--7---5---4---5----------------
G|-4-----------------------------------4/6~~---------
D|---------------------------------------------------
A|---------------------------------------------------
E|---------------------------------------------------

E|---------------------------------------------------
B|---------------------------------------------------
G|--------8h9~--p8-----------------------------------
D|-8h9h11----------11p9p8\6h8h9~--9p8p6-----------6~-
A|--------------------------------------9p7p6h7h9----
E|---------------------------------------------------

E|---------------------------------------------------
B|---------------------------------------------------
G|---------------------------------------------------
D|---------------------------------------------------
A|-9p7p6h7h9~~--9p7p6\4h6h7~~--7p6p4-----------------
E|-----------------------------------7~~~------------

(Guitarra Base)

Principal:

   B11                     E7M(6)
E|-----------------------------------------
B|-------5-----------5-----------4---------
G|-----8---8-------8---8-------6---6-------
D|---9-------9---9-------9---6-------6-----
A|-----------------------------------------
E|-7-----------7-----------0---------------
   P.M.. . . . . . . . . . . . . . . .

   F#4         B11
E|-----------------------------------------
B|-------2-----------5-----------5---------
G|-----4---4-------8---8-------8---8-------
D|---4-------4---9-------9---9-------9-----
A|-----------------------------------------
E|-2-----------7-----------7---------------
   P.M.. . . . . . . . . . . . . . . .

   E7M(6)    F#4         B11
E|-----------------------------------------
B|-------4---------2-----------5-----------
G|-----6---6-----4---4-------8---8---------
D|---6---------4-------4---9-------5-------
A|-----------------------------------------
E|-0---------2-----------7-----------------
   P.M.. . . . . . . . . . . . . . .

               E7M(6)      F#4
E|-----------------------------------------
B|-------5-----------4-----------2---------
G|-----8---8-------6---6-------4---4-------
D|---9-------9---6-------6---4-------4-----
A|-----------------------------------------
E|-7-----------0-----------2---------------
   P.M.. . . . . . . . . . . . . . . .

   G#m7(11)    E7M(6)      F#4
E|-----------------------------------------
B|-------2-----------4-----------2---------
G|-----4---4-------6---6-------4---4-------
D|---4-------4---6-------6---4-------4-----
A|-----------------------------------------
E|-4-----------0-----------2---------------
   P.M.. . . . . . . . . . . . . . . .

   F#
E|-----------------------------------------
B|-------2---------------------------------
G|-----3---3-------------------------------
D|---4-------4-----------------------------
A|-----------------------------------------
E|-2---------------------------------------
   P.M.. . . .

Segunda Parte:

   Bm9                         Em9
E|-----------------------------------------
B|-----------------------------------------
G|--------7-------------7------------0-----
D|-----11---11-------11---11-------4---4---
A|---9---------9---9---------9---2-------2-
E|-7-------------7-------------0-----------
   P.M..  . .  . . . .  . .  . . . . . . .

   F#4(7)      Bm9
E|-----------------------------------------
B|-----------------------------------------
G|-------4------------7-------------7------
D|-----2---2-------11---11-------11---11---
A|---4-------4---9---------9---9---------9-
E|-2-----------7-------------7-------------
   P.M.. . . . . . .  . .  . . . .  . .  .

   Em9         F#4(7)      Bm9
E|-----------------------------------------
B|-----------------------------------------
G|-------0-----------4------------7--------
D|-----4---4-------2---2-------11---11-----
A|---2-------2---4-------4---9---------9---
E|-0-----------2-----------7---------------
   P.M.. . . . . . . . . . . . .  . .  .

                 Em9         F#4(7)
E|-----------------------------------------
B|-----------------------------------------
G|--------7------------0-----------4-------
D|-----11---11-------4---4-------2---2-----
A|---9---------9---2-------2---4-------4---
E|-7-------------0-----------2-------------
   P.M..  . .  . . . . . . . . . . . . .

   G9          Em9         F#4(7)
E|-----------------------------------------
B|-----------------------------------------
G|-------4-----------0-----------4---------
D|-----7---7-------4---4-------2---2-------
A|---5-------5---2-------2---4-------4-----
E|-3-----------0-----------2---------------
   P.M.. . . . . . . . . . . . . . . .

   F#7         G9          Em9
E|-----------------------------------------
B|-----------------------------------------
G|-------3-----------4-----------0---------
D|-----2---2-------7---7-------4---4-------
A|---4-------4---5-------5---2-------2-----
E|-2-----------3-----------0---------------
   P.M.. . . . . . . . . . . . . . . .

   F#4(7)                  F#7
E|-----------------------------------------
B|-----------------------------------------
G|-------4-----------4-----------3---------
D|-----2---2-------2---2-------2---2-------
A|---4-------4---4-------4---4-------4-----
E|-2-----------2-----------2-----------2~--
   P.M.. . . . . . . . . . . . . . . . .
Composición de Joe Satriani
4.463 vistas
    • ½ Tono
    • A
    • Bb
    • B
    • C
    • Db
    • D
    • Eb
    • E
    • F
    • F#
    • G
    • Ab
  • Agregar a la lista

    0 comentarios

    Ver todos los comentarios

    ¿Lograste tocar?

    18 Tocaron 1 Aún no

    ¡Graba un video tocando Always With Me, Always With You y envíanoslo!

    00:00 / 00:00
    Outros vídeos desta música
    Repetir Calidad Automático
    Outros vídeos desta música
    00:00 / 00:00
    Automático
    Capítulos
    • Início
    • Tocando a música
    • Configuração dos Efeitos
    • Primeira Sequência de Acordes da Base
    • Ensinando Base Principal
    • Segunda Sequência de Acordes da Base
    • Ensinando Segunda Parte da Base
    • Tocando Primeira Parte
    • Ensinando Primeira Parte
    • Tocando Segunda Parte
    • Ensinando Segunda Parte
    • Tocando Terceira Parte
    • Ensinando Terceira Parte
    • Tocando Quarta Parte
    • Ensinando Quarta Parte
    • Tocando Final
    • Ensinando Final
    • Encerramento
    OK