Cifra Club

Attack

Joe Satriani

Cifrado: Principal (guitarra y guitarra eléctrica)
tono: C
 E E E E E E E E   E E E E E E E E   E E E E E E E E   E E E E E E E E 
|-----------------|-----------------|-----------------|------------------| 
|-----------------|-----------------|-----------------|------------------| 
|-----------------|-----------------|-----------------|------------------| 
|-----------------|-----------------|-----------------|------------------| 
|-3-2-2-2-3-2-2---|-0-2-2-2-0-2-2---|-3-2-2-3-2-2-2---|-0-2-2-2-0-2-2----| 
|-----------------|-----------------|-----------------|------------------| 
 
  E E E E E E E E   E E E E E E E E   E E E E E E E E   E E E E E E E E 
|-----------------|-----------------|-----------------|-----------------| 
|-----------------|-----------------|-----------------|-----------------| 
|-----------------|-----------------|-----------------|-----------------| 
|-----------------|-----------------|-----------------|-----------------| 
|-3-2-2-2-3-2-2---|-0-2-2-2-0-2-2---|-3-2-2-3-2-2-2---|-0-2-2-2-0-2-2---| 
|-----------------|-----------------|-----------------|-----------------| 
 
  E E E E E E E E   E E E E E E E E   E E E E E E E E   E E E E E E E E 
|-----------------|-----------------|-----------------|-----------------| 
|-----------------|-----------------|-----------------|-----------------| 
|-----------------|-----------------|-----------------|-----------------| 
|-----------------|-----------------|-----------------|-----------------| 
|-3-2-2-2-3-2-2---|-0-2-2-2-0-2-2---|-3-2-2-3-2-2-2---|-3-2-2-3-2-2-2---| 
|-----------------|-----------------|-----------------|-----------------| 
  
  E E E E E E E E   E E E E E E E E   E E E E E E E E   E E Q  H 
|-----------------|-----------------|-----------------|-------------| 
|-----------------|-----------------|-----------------|-------------| 
|-----------------|-----------------|-----------------|-------------| 
|-----------------|-----------------|-----------------|-------------| 
|-3-2-2-2-3-2-2---|-0-2-2-2-0-2-2---|-3-2-2-2-3-2-2---|-0-2---------| 
|-----------------|-----------------|-----------------|-------------| 
 
  S S S S S S E H      S S S S E E H      S S S S S S E H 
|--------------------|------------------|--------------------| 
|-5---5---4----------|---------4--------|-5---5---4----------| 
|---4---4---4--------|-5-4-5-4----------|---4---4---4--------| 
|--------------------|------------------|--------------------| 
|--------------------|------------------|--------------------| 
|--------------------|------------------|--------------------| 
 
  S S S S S S S S E E Q    S S S S E E H      S S S S E E H 
|-2-2-2-2-2-2-2-2-2------|------------------|------------------| 
|------------------------|-5---5---4--------|---------4--------| 
|------------------------|---4---4----------|-5-4-5-4----------| 
|------------------------|------------------|------------------| 
|------------------------|------------------|------------------| 
|------------------------|------------------|------------------| 
 
  S S S S  E E Q  E S S   S S S S S S S S H       S S  S S E E Q  E S S 
|-7---7-----------------|----------------------|-10---10-----------------| 
|---------11------------|----------------------|-----------7--------5----| 
|-----------------------|----------------------|----------------------4--| 
|---9---9-----------9-9-|-9-9-9-9-9-9-9-9------|----9----9---------------| 
|-----------------------|----------------------|-------------------------| 
|-----------------------|----------------------|-------------------------| 
 
  S S S S E E H      S S S S E E Q  E S S   S S S S E E H 
|-7---7------------|----------------------|-7----------------| 
|---------7--------|-8---8---7--------5---|------------------| 
|------------------|--------------------4-|-----9---8--------| 
|---9---9----------|---9---9--------------|---9---9----------| 
|------------------|----------------------|------------------| 
|------------------|----------------------|------------------| 
 
  S S S S E E Q  E S S   S S S S E E Q  E  S S    S S  S S E E Q  E S S 
|----------------------|-7----------------10---|-10---10---9------------| 
|-8---8---7--------5---|---------7-------------|------------------------| 
|--------------------4-|-----9-----------------|-------------9------9---| 
|---9---9--------------|---9---9-------------9-|----9----9------------9-| 
|----------------------|-----------------------|------------------------| 
|----------------------|-----------------------|------------------------| 
 
  S S S S  E  S  S  S  S  S  S  Q 
|-7--------------------------------| 
|---------11-----------------------| 
|-----9----------------------------| 
|---9---9----13--------------------| 
|---------------14-15-14-14-14-14--| 
|----------------------------------| 
 
   S  S  S  S  S  S  S  S  E  S  S  S  S  S  S 
|----------------------------------------------| 
|----------------------------------------------| 
|----------------------------------------------| 
|-16-16-16-16-16-16-16-16----------16-16-16-16-| 
|-------------------------------17-------------| 
|-------------------------17-17----------------| 
 
   S  S  S  S  S  E  S  S  E  S  S  S  S  S 
|-------------------------------------------| 
|-------------------------------------------| 
|-------------------------------------------| 
|-16-16-16-16-16-16-16-16-16-16-16-16-16-16-| 
|-------------------------------------------| 
|-------------------------------------------| 
 
   S  S  S  S  S  S  S  S  S  S  S  S  S  S  S  S 
|--------------------------------------------------| 
|--------------------------------------------------| 
|--------------------------------------------------| 
|-16-16-16-16-16-16-16-16-16-16-16-16-16-16-16-16--| 
|--------------------------------------------------| 
|--------------------------------------------------| 
 
   S  S  S  S  S  S  S  S  S  S  S  S  S  S  S  S 
|-------------------------------------------------| 
|-------------------------------------------------| 
|-------------------------------------------------| 
|-16-16-16-16-16-16-16-16-16-16-16-16-16-16-16-16-| 
|-------------------------------------------------| 
|-------------------------------------------------| 
 
   S  S  S  S  S  S  S  S  S  S  S  S  S  S  S  S 
|-------------------------------------------------| 
|-------------------------------------------------| 
|-------------------------------------------------| 
|-16-16-16-16-16-16-16-16-16-16-16-16-16-16-16-16-| 
|-------------------------------------------------| 
|-------------------------------------------------| 
 
   S  S  S  S  S  S  S  S  S  S  S  S  S  S  S  S 
|-------------------------------------------------| 
|-------------------------------------------------| 
|-------------------------------------------------| 
|-16-16-16-16-16-16-16-16-16-16-16-16-16-16-16-16-| 
|-------------------------------------------------| 
|-------------------------------------------------| 
 
   S  S  S  S  S  S  S  S  S  S  S  S  S  S  S  S 
|-------------------------------------------------| 
|-------------------------------------------------| 
|-------------------------------------------------| 
|-16-16-16-16-16-16-16-16-16-16-16-16-16-16-16-16-| 
|-------------------------------------------------| 
|-------------------------------------------------| 
 
   S  S  S  S  S  S  S  S  S  S  S  S  S  S  S  S 
|-------------------------------------------------| 
|-------------------------------------------------| 
|-------------------------------------------------| 
|-16-16-16-16-16-16-16-16-16-16-16-16-16-16-16-16-| 
|-------------------------------------------------| 
|-------------------------------------------------| 
 
   S  S  S  S  E  S S S  S  S  S S S E 
|---------------------2-----------------| 
|-------------------1-1--7--7--7-7------| 
|-------------------5---11-11-11--------| 
|-16-16-16-16-17------------------------| 
|----------------15---------------------| 
|--------------------------------0------| 
 
  S S S S E E Q  E S S   S S S S S S S S  S S  S  S  S E. 
|------------------7---|----------------------------------| 
|---------4------------|----------------------------------| 
|-5-4-5-4--------------|-9---9---8---8--------------------| 
|--------------------9-|---9---9---9---9-10-9-10-12-10-9--| 
|----------------------|----------------------------------| 
|----------------------|----------------------------------| 
 
   S S  S S E E Q  E S S 
|-------------------------| 
|-------------------------| 
|-----------8--------9----| 
|-10-9-10-9------------9--| 
|-------------------------| 
|-------------------------| 
 
  S S S S S S S S  S S  S  S  S E.   S S S S E E Q  E S S 
|----------------------------------|----------------------| 
|----------------------------------|----------------------| 
|-9---9---8---8--------------------|-9---9---8--------9---| 
|---9---9---9---9-10-9-10-12-10-9--|---9---9------------9-| 
|----------------------------------|----------------------| 
|----------------------------------|----------------------| 
 
  S S S S S S S S  S S  S  S  S E.    S S  S S E E Q  E S S 
|----------------------------------|------------------------| 
|----------------------------------|------------------------| 
|-9---9---8---8--------------------|-----------8--------9---| 
|---9---9---9---9-10-9-10-12-10-9--|-10-9-10-9------------9-| 
|----------------------------------|------------------------| 
|----------------------------------|------------------------| 
 
  S S S S S S S S  S S  S  S  S E.   S S S S  S S  S S  S S  S S  S S  S S 
|----------------------------------|---------10---10---10---10---10---10----| 
|----------------------------------|-8---8----------------------------------| 
|-9---9---8---8--------------------|----------------------------------------| 
|---9---9---9---9-10-9-10-12-10-9--|---9---9----9----9----9----9----9----9--| 
|----------------------------------|----------------------------------------| 
|----------------------------------|----------------------------------------| 
 
   S S  S S  S S  S S  S  S  S  S  S  S  S  S 
|-10---10---10---10---12----12----12----12----| 
|---------------------------------------------| 
|---------------------------------------------| 
|----9----9----9----9-------------------------| 
|------------------------14----14----14----14-| 
|---------------------------------------------| 
 
   S  S  S  S  S  S  S  S  S  S  S  S  S  S  S  S 
|-------------------------------------------------| 
|-14----14----14----14----14----14----14----14----| 
|-------------------------------------------------| 
|-------------------------------------------------| 
|----14----14----14----14----14----14----14----14-| 
|-------------------------------------------------| 
 
   S  S  S  S  S  S  S  S  S  S  S  S  Q 
|-14----14----14----14----14----14----14--| 
|-----------------------------------------| 
|-----------------------------------------| 
|-----------------------------------------| 
|----14----14----14----14----14----14-----| 
|-----------------------------------------| 
 
   E  E  S  S  S  S  S  S  S  S  S  S  S  S 
|-------12----12----------------------------| 
|-12----------------16----------13-12-10-12-| 
|-------------------------------------------| 
|-------------------------------------------| 
|----14----14----14----14-14-14-------------| 
|-------------------------------------------| 
 
   E  E  S  S  S  S  S  S  S  S  S  S  S  S 
|-------12----12----------------------------| 
|-12----------------16----------13-12-10-12-| 
|-------------------------------------------| 
|-------------------------------------------| 
|----14----14----14----14-14-14-------------| 
|-------------------------------------------| 
 
   E  E  S  S  S  S  S  S  S  S  S  S  S  S 
|-------12----12----------------------------| 
|-12----------------16----------13-12-10-12-| 
|-------------------------------------------| 
|-------------------------------------------| 
|----14----14----14----14-14-14-------------| 
|-------------------------------------------| 
 
   E  E  S  S  S  S  S  S  S  S  S  S  S  S    W           +W 
|-------12----12----------------------------|-----------|---------| 
|-12----------------16----------13-12-10-12-|-12--------|-(12)----| 
|-------------------------------------------|-----------|---------| 
|-------------------------------------------|-----------|---------| 
|----14----14----14----14-14-14-------------|-----------|---------| 
|-------------------------------------------|-----------|---------|
 
   +W            +H      H 
|-------------|---------------*| 
|-(12)--------|-(12)----12----*| 
|-------------|---------------*| 
|-------------|---------------*| 
|-------------|---------------*| 
|-------------|---------------*|
Composición de Joe Satriani
Colaboración y revisión:
  • Vyktor Santos
38 vistas
    • ½ Tono
    • A
    • Bb
    • B
    • C
    • Db
    • D
    • Eb
    • E
    • F
    • F#
    • G
    • Ab
  • Agregar a la lista

    0 comentarios

    Ver todos los comentarios

    ¿Lograste tocar?

    0 Tocaron 0 Aún no

    ¡Graba un video tocando Attack y envíanoslo!

    00:00 / 00:00
    Outros vídeos desta música
    Repetir Calidad Automático
    Outros vídeos desta música
    00:00 / 00:00
    Automático
    OK