Cifra Club

Echo

Joe Satriani

Cifrado: Principal (guitarra y guitarra eléctrica)
tono: E
----------------------|----------------------|-------5----5----5----5--7--|
----------------------|----------------------|----5-----------------------|
----------------------|----------------------|----------------------------|
----------------------|----------------------|----------------------------|
----------------------|----------------------|----------------------------|
----------------------|----------------------|----------------------------|


                                                      
------------------------|-------5----5----5----5--7--|
--5------5--------------|----5-----------------------|
------------------------|----------------------------|
------------------------|----------------------------|
------------------------|----------------------------|
------------------------|----------------------------|


                                                        
----------------------------|--------------------------|
--5------5------7/8----7----|--3/-----5----8h-5--------|
--------------7-------------|--------------------------|
----------------------------|--------------------------|
----------------------------|--------------------------|
----------------------------|--------------------------|


                                                                              
--------------------------|---------------------------|----------------------|
--------------7h8----7----|--------------10-----------|----------------------|
------------7-------------|--7/-----9--------9--------|----------------------|
--------------------------|---------------------------|----------------------|
--------------------------|---------------------------|----------------------|
--------------------------|---------------------------|----------------------|


                                                      
-------5----5----5----5--7--|------------------------|
----5-----------------------|--5------5--------------|
----------------------------|------------------------|
----------------------------|------------------------|
----------------------------|------------------------|
----------------------------|------------------------|


                                                          
-------5----5----5----5--7--|----------------------------|
----5-----------------------|--5------5------7/8----7----|
----------------------------|--------------7-------------|
----------------------------|----------------------------|
----------------------------|----------------------------|
----------------------------|----------------------------|


                                                      
--------------------------|--------------------------|
--3/-----5----8h-5--------|--------------7h8----7----|
--------------------------|------------7-------------|
--------------------------|--------------------------|
--------------------------|--------------------------|
--------------------------|--------------------------|


                                                          
---------------------------|-----------------------------|
--------------10-----------|-----------------------------|
--7/-----9--------9--------|-----------------------------|
---------------------------|--------------9/7--5-9/7--5--|
---------------------------|-----------------------------|
---------------------------|-----------------------------|


                                                                            
-----------------------|----------------------|----------------------------|
-----------------------|----------------------|---------------12/14--------|
-----------------------|----------------------|--9-------------------------|
-----------------------|----------------------|----------------------------|
--7--------------------|----------------------|----------------------------|
-----------------------|----------------------|----------------------------|


                                                                              
--------------------------|---------------8/12--------|----------------------|
--------------12r---10----|--8------------------------|----------------------|
--------------------------|---------------------------|----------------------|
--------------------------|---------------------------|----------------------|
--------------------------|---------------------------|----------------------|
--------------------------|---------------------------|----------------------|


                                                        
---------------9/12--------|--------------11----9----9/|
--9------------------------|---------------------------|
---------------------------|---------------------------|
---------------------------|---------------------------|
---------------------------|---------------------------|
---------------------------|---------------------------|


                                                                                
--11--------------------|--------------11/9----7----|--7/-----9-----7/9--------|
------------------------|---------------------------|--------------------------|
------------------------|---------------------------|--------------------------|
------------------------|---------------------------|--------------------------|
------------------------|---------------------------|--------------------------|
------------------------|---------------------------|--------------------------|


                                                         
--------------9/7/---5----5/|--7/-----9------7/9--------|
----------------------------|---------------------------|
----------------------------|---------------------------|
----------------------------|---------------------------|
----------------------------|---------------------------|
----------------------------|---------------------------|


                                                        
--------------9/7/---5----7/|--5/-----7-----5/7--------|
----------------------------|--------------------------|
----------------------------|--------------------------|
----------------------------|--------------------------|
----------------------------|--------------------------|
----------------------------|--------------------------|


                                                                            
--------------7/5---------5/|--7--------------------|----------------------|
---------------------5------|-----------------------|----------------------|
----------------------------|-----------------------|----------------------|
----------------------------|-----------------------|----------------------|
----------------------------|-----------------------|----------------------|
----------------------------|-----------------------|----------------------|


                                                                     
----------------------|----------------------|----------------------|
----------------------|----------------------|----------------------|
----------------------|----------------------|----------------------|
----------------------|----------------------|----------------------|
----------------------|----------------------|----------------------|
----------------------|----------------------|----------------------|


                                            
-------------5h7h8h--7h5-------------------|
-------5-7h8-------------8h7h5-------------|
-------------------------------7h5/4h-5h7h-|
-------------------------------------------|
-------------------------------------------|
-------------------------------------------|


                                                                      
------------------------------------------|--------------------------|
------------------------------------------|--------------------------|
------5h-4--------------------------------|--------------------------|
------------7h-5h3/2-4h5h4h2--------------|--------------------2--4--|
-----------------------------5h3----3h5h3-|--2--------------2--------|
------------------------------------------|--------------------------|


                                                                  
------------------------------|----------------------------------|
------------------------------|----------------------------------|
------------------------------|----------------------------------|
--5--4--5--2--4--------2------|--4----------------4/---5----7----|
-----------------3--x---------|-----5-----------x----------------|
------------------------------|---------------x------------------|


                                                   
---------------------------|----------------------|
---------------------------|----------------------|
---------------------------|----------------------|
--7/9-----7/---5/-7--------|----------------------|
---------------------------|----------------------|
---------------------------|----------------------|


                                                                    
---------------------------------|---------------------------------|
---------------------------------|--8h-7---------------------------|
----11/9------11--12----9/7------|--------9------------------------|
---------------------------------|-------------7/9/---7/---5-------|
---------------------------------|-----------------------------7-5/|
---------------------------------|---------------------------------|


                                                        
---------------------------|---------------------------|
---------------------------|---------------------------|
---------------------------|---------------------------|
---------------------5b-7--|--5r----------------5b-----|
--7------5--------7--------|-----------7h5-7-----------|
---------------------------|---------------------------|


                                                  
--------10b-----------10b-|----------------------|
--------------------------|----------------------|
--------------------------|----------------------|
--------------------------|----------------------|
--------------------------|----------------------|
--------------------------|----------------------|


                                                          
----12/--10h9h8h7h8-10---8h7------7----------------------|
-----------------------------10h7---10h8/6h5-7h8h7h5-----|
-----------------------------------------------------7h5h|
---------------------------------------------------------|
---------------------------------------------------------|
---------------------------------------------------------|


                                                      
-----------------------------------------------------|
----------------5------------------------------------|
--4h5h7h5h4h5h7-----7h5h4----------------------------|
--------------------------7h5h4-4h5h7h5h4------------|
------------------------------------------7h5h3/2----|
-----------------------------------------------------|


                                                   
--------------------------------------------------|
--------------------------------------------------|
--------------------------------------------------|
--------2-4h5h4h2---2h4h5h4h2---2h4h5h4h2---2h4h5h|
------------------5-----------5-----------5-------|
--------------------------------------------------|


                                                               
--------------------------------------------------------------|
--------------------------------------------------------------|
--------------------------------------------------------------|
--4h2---2h4h5h4h2---2h4h5h4h2---2h4h5h4h2---2h4h5h4h2---------|
------5-----------5-----------5-----------5-----------5-2h3h5-|
--------------------------------------------------------------|


                                                                
---------------------------------------------------------------|
---------------------------------------------------------------|
---------------------------------------------------------------|
---------------------------------------------------------------|
--2h3h5h3h2----------2h3h5h3h2h3h5/7h5h3---------2h3h5h3h2h3h5/|
------------5h3-2--5---------------------7-3h2hx---------------|


                                                                           
--------------------------------------------------|-----------------------|
--------------------------------------------------|-----------------------|
----------------------5-7h9h7h5/4-7h5h4h-----5r---|--------------0--------|
-----4h5h7h5h4h5h7/9--------------------7-5-------|-----------------------|
--7-----------------------------------------------|-----------------------|
--------------------------------------------------|-----------------------|


                                                               
----------------------------|---------------------------------|
-------------------5/7------|--5------------------------------|
--4-------------------------|----7h5-------4------------------|
-------7----5----4----------|--------7h5h7--------7h5h4-------|
----------------------------|---------------------------7-----|
----------------------------|---------------------------------|


                                                                
--------------------------------|------------------------------|
--------------------------------|------------------------------|
-------------------7-------7----|--7b-9------------------------|
--------10/7----9-------9-------|-------------9/5---------7--5-|
--------------------------------|------------------------------|
--------------------------------|------------------------------|


                                                                                
-------------------17r---|------17b-------------19r-|------------x--x--17r-----|
-------------------------|--------------------------|--------------------------|
-------------------------|--------------------------|--------------------------|
-------------------------|--------------------------|--------------------------|
--7----------------------|--------------------------|--------------------------|
-------------------------|--------------------------|--------------------------|


                               
--17-----15--------15b--------|
------------17----------------|
------------------------------|
------------------------------|
------------------------------|
------------------------------|


                                                              
----14r-14r-12--12-14h15h14-12-------------------------------|
----------------12-------------15h12-15h13h12----------------|
----------------------------------------------14h12h11h12h14-|
-------------------------------------------------------------|
-------------------------------------------------------------|
-------------------------------------------------------------|


                                                  
-------------------------------------------------|
--------10h9h8h7/5h7-5----8h7h5-8h5h7h8h7h5------|
--------------------------------------------7h4--|
-------------------------------------------------|
-------------------------------------------------|
-------------------------------------------------|


                                                                      
----------------------------------------|----------------------------|
----------------------------------------|----------------------------|
----------------------------------------|----------------------------|
------7h9h10-10---9h7-9----7----7-------|----------------------------|
-----------------------------10----10h9-|--7------5/---7--7--7--5b---|
----------------------------------------|----------------------------|


                                                           
-----------------------------|----------------------------|
-----------------------------|---------------12/14--------|
-----------------------------|--9-------------------------|
-----------------------------|----------------------------|
--7------7/10----9--7--------|----------------------------|
-----------------------------|----------------------------|


                                                                              
--------------------------|---------------8/12--------|----------------------|
--------------12r---10----|--8------------------------|----------------------|
--------------------------|---------------------------|----------------------|
--------------------------|---------------------------|----------------------|
--------------------------|---------------------------|----------------------|
--------------------------|---------------------------|----------------------|


                                                        
---------------9/12--------|--------------11----9----9/|
--9------------------------|---------------------------|
---------------------------|---------------------------|
---------------------------|---------------------------|
---------------------------|---------------------------|
---------------------------|---------------------------|


                                                                                
--11--------------------|--------------11/9----7----|--7/-----9-----7/9--------|
------------------------|---------------------------|--------------------------|
------------------------|---------------------------|--------------------------|
------------------------|---------------------------|--------------------------|
------------------------|---------------------------|--------------------------|
------------------------|---------------------------|--------------------------|


                                                         
--------------9/7/---5----5/|--7/-----9------7/9--------|
----------------------------|---------------------------|
----------------------------|---------------------------|
----------------------------|---------------------------|
----------------------------|---------------------------|
----------------------------|---------------------------|


                                                        
--------------9/7/---5----7/|--5/-----7-----5/7--------|
----------------------------|--------------------------|
----------------------------|--------------------------|
----------------------------|--------------------------|
----------------------------|--------------------------|
----------------------------|--------------------------|


                                                                            
--------------7/5---------5/|--7--------------------|----------------------|
---------------------5------|-----------------------|----------------------|
----------------------------|-----------------------|----------------------|
----------------------------|-----------------------|----------------------|
----------------------------|-----------------------|----------------------|
----------------------------|-----------------------|----------------------|


                                                                           
----------------------|----------------------|-------5----5----5----5--7--|
----------------------|----------------------|----5-----------------------|
----------------------|----------------------|----------------------------|
----------------------|----------------------|----------------------------|
----------------------|----------------------|----------------------------|
----------------------|----------------------|----------------------------|


                                                      
------------------------|-------5----5----5----5--7--|
--5------5--------------|----5-----------------------|
------------------------|----------------------------|
------------------------|----------------------------|
------------------------|----------------------------|
------------------------|----------------------------|


                                                        
----------------------------|--------------------------|
--5------5------7/8----7----|--3/-----5----8h-5--------|
--------------7-------------|--------------------------|
----------------------------|--------------------------|
----------------------------|--------------------------|
----------------------------|--------------------------|


                                                                              
--------------------------|---------------------------|----------------------|
--------------7h8----7----|--------------10-----------|----------------------|
------------7-------------|--7/-----9--------9--------|----------------------|
--------------------------|---------------------------|----------------------|
--------------------------|---------------------------|----------------------|
--------------------------|---------------------------|----------------------|


                                                                     
----------------------|----------------------|----------------------|
----------------------|----------------------|----------------------|
----------------------|----------------------|----------------------|
----------------------|----------------------|----------------------|
----------------------|----------------------|----------------------|
----------------------|----------------------|----------------------|


                                                         
------------------------------|-------------------------|
------------------------------|-------------------------|
------------------------------|-------------------------|
----7r-5--7--5--7--7/8/7------|-------------------------|
------------------------------|------------------5/7----|
------------------------------|-------------------------|


                                                       
------------------------|-----------------------------|
----8-------------------|--------10r---8--10--8b------|
------9-----------------|------------------------9----|
------------------------|-----------------------------|
------------------------|-----------------------------|
------------------------|-----------------------------|


                                                                            
---------------------------|----------------------|--------17b-------------|
------8--------------------|----------------------|------------------------|
---------9------9/---------|----------------------|------------------------|
---------------------------|----------------------|------------------------|
---------------------------|----------------------|------------------------|
---------------------------|----------------------|------------------------|


                                                              
--------17r-----17r-17--15--17--|--17r---17b-------15b-------|
--------------------------------|----------------------------|
--------------------------------|----------------------------|
--------------------------------|----------------------------|
--------------------------------|----------------------------|
--------------------------------|----------------------------|


                                                                  
----------15h12-------------------|------------------------------|
--------------------15h-12--------|------------------------------|
----------------------------14----|--14r---14r-------------14/16-|
----------------------------------|------------------------------|
----------------------------------|------------------------------|
----------------------------------|------------------------------|


                                                                            
----------------------------------|----------------------------------------|
--15------17----17--15----17------|--15------17----------------------------|
------------------------------16--|----------------14r-12--14--------------|
----------------------------------|---------------------------14/12--14-14/|
----------------------------------|----------------------------------------|
----------------------------------|----------------------------------------|


                                                       
----------------------------|-------------------------|
----------------------------|----------------------12h|
--------------12------------|-------------------------|
--12--------------14--------|-------------------------|
----------------------------|-------------------------|
----------------------------|-------------------------|


                                                               
--12---12----------------------|------------------------------|
--15---12h10-------------------|------------------------------|
---------------12h9------------|------------------------------|
-------------------------------|--7--4b----5----7--5---x-7----|
-------------------------------|--------7---------------------|
-------------------------------|------------------------------|


                                                             
---------

Composición de Joe Satriani
81 vistas
    • ½ Tono
    • A
    • Bb
    • B
    • C
    • Db
    • D
    • Eb
    • E
    • F
    • F#
    • G
    • Ab
  • Agregar a la lista

    0 comentarios

    Ver todos los comentarios

    ¿Lograste tocar?

    0 Tocaron 0 Aún no

    ¡Graba un video tocando Echo y envíanoslo!

    00:00 / 00:00
    Outros vídeos desta música
    Repetir Calidad Automático
    Outros vídeos desta música
    00:00 / 00:00
    Automático
    OK