Cifra Club

Echo

Joe Satriani

Tab de bajo: Principal
(intro)

G|--------------------------------------------------|
D|------------4---------------------4---------------|
A|----------5---7--7--------------5---7--7----------|
E|--0--0------------------0--0---------------3-2-0--|

G|--------------------------------------------------|
D|--------------------------------------------------|
A|--3--3----2-5-3--3------3--3----2-5-3--3----------|
E|--------------------------------------------------|
Composición de Joe Satriani
Colaboración y revisión:
  • Paulo Ricardo
33 vistas

0 comentarios

Ver todos los comentarios

¿Lograste tocar?

0 Tocaron 0 Aún no

¡Graba un video tocando Echo y envíanoslo!

00:00 / 00:00
Outros vídeos desta música
Repetir Calidad Automático
Outros vídeos desta música
00:00 / 00:00
Automático
OK