Cifra Club

I Just Wanna Rock

Joe Satriani

Cifrado: Principal (guitarra y guitarra eléctrica)
tono: D
(intro)

E|-------------------------------------|
B|-----------------3-------------------|
G|--2--2--2--2-5-2-2-2-5--2--2--2---0--|
D|--2--2--2--2-5-2---2-5--2--2--2---0--|
A|--0--0--0---------------0--0--0------|
E|-------------------------------------|
  What is your purpose?

E|-------------------------------------|
B|-----------------3-------------------|
G|--2--2--2--2-5-2-2-2-5--2--2--2------|
D|--2--2--2--2-5-2---2-5--2--2--2------|
A|--0--0--0---------------0--0--0------|
E|-------------------------------------|
  What is your purpose?

E|----------------------------------------|
B|-----------------3----------------------|
G|--2--2--2--2-5-2-2-2-5--2--2--2--9\\-0--|
D|--2--2--2--2-5-2---2-5--2--2--2--9\\-0--|
A|--0--0--0---------------0--0--0---------|
E|----------------------------------------|
  What is your purpose?

E|----------------------------------------------|
B|-----------------3----------------------------|
G|--2--2--2--2-5-2-2-2-5--2--2----0-2--9-^-^-^--|
D|--2--2--2--2-5-2---2-5--2--2--2-0-2---^-^-^---|
A|--0--0--0---------------0--0--2---0-----------|
E|----------------------------------------------|
  What is your purpose?

E|-------------------------------------|
B|-----------------3-------------------|
G|--2--2--2--2-5-2-2-2-5--2--2--2---0--|
D|--2--2--2--2-5-2---2-5--2--2--2---0--|
A|--0--0--0---------------0--0--0------|
E|-------------------------------------|
  What is your purpose? I just wanna rock!

E|-------------------------------------|
B|-----------------3-------------------|
G|--2--2--2--2-5-2-2-2-5--2--2--2------|
D|--2--2--2--2-5-2---2-5--2--2--2------|
A|--0--0--0---------------0--0--0------|
E|-------------------------------------|
  What is your purpose? I just wanna rock!

E|----------------------------------------|
B|-----------------3----------------------|
G|--2--2--2--2-5-2-2-2-5--2--2--2--9\\-0--|
D|--2--2--2--2-5-2---2-5--2--2--2--9\\-0--|
A|--0--0--0---------------0--0--0---------|
E|----------------------------------------|
  What is your purpose? I just wanna rock!

E|----------------------------------------------|
B|-----------------3----------------------------|
G|--2--2--2--2-5-2-2-2-5--2--2----0-2--9-^-^-^--|
D|--2--2--2--2-5-2---2-5--2--2--2-0-2---^-^-^---|
A|--0--0--0---------------0--0--2---0-----------|
E|----------------------------------------------|
  What is your purpose? I just wanna rock!

(talkbox)
E|----------------------------------------------------------------------------|
B|----------------------------------------------------------------------------|
G|--------5-------5-------5-7-5-7b9-5----------5-------5-------5-7-5-7b9-5----|
D|--5-7-5---5-7-5---5-7-5-------------7--5-7-5---5-7-5---5-7-5-------------7--|
A|----------------------------------------------------------------------------|
E|----------------------------------------------------------------------------|

E|------------------5-------------------------------------5------------------|
B|--------------------8-5-------5---------------------------8-5-------5------|
G|--------5-------5-------7-5-7---5----------5-7b9r7-5----------7-5-7---5----|
D|--5-7-5---5-7-5-------------------7--5-7-5-----------7------------------7--|
A|---------------------------------------------------------------------------|
E|---------------------------------------------------------------------------|
00:00 / 00:00
Otros videos de esta canción
Repetir
Otros videos de esta canción
Composición de Joe Satriani
Colaboración y revisión:
  • Paulo Ricardo
83 vistas
    • ½ Tono
    • A
    • Bb
    • B
    • C
    • Db
    • D
    • Eb
    • E
    • F
    • F#
    • G
    • Ab
  • Agregar a la lista

    0 comentarios

    Ver todos los comentarios

    ¿Lograste tocar?

    0 Tocaron 0 Aún no

    ¡Graba un video tocando I Just Wanna Rock y envíanoslo!

    00:00 / 00:00
    OK