Cifra Club

Profesor Satchafunkilus

Joe Satriani

Cifrado: Principal (guitarra y guitarra eléctrica)
tono: Em
(intro)
|---------------------------------------------------------------|
|-----12-14-14-14-14p12p10-12~-10~-7-10-10-10-12~-10~-----------|
|---------------------------------------------------------------|
|---------------------------------------------------------------|
|---------------------------------------------------------------|
|---------------------------------------------------------------|

|---------------------------------------------------------------|
|----------------8-----------10-6hb-----------------------------|
|------------7-9--------7-9----------7--------------------------|
|------5-5/9--------5/9-----------------------------------------|
|---------------------------------------------------------------|
|---------------------------------------------------------------|

|---------------------------------------------------------------|
|----------------8-----------10-6hb------12b14------------------|
|------------7-9--------7-9----------7--------------------------|
|------5-5/9--------5/9-----------------------------------------|
|---------------------------------------------------------------|
|---------------------------------------------------------------|

|---------------------------------------------------------------|
|----------------8-----------10-6hb------12b14-14-14-14-12-10p8-|
|-----------7-9--------7-9----------7---------------------------|
|-----5-5/9--------5/9------------------------------------------|
|---------------------------------------------------------------|
|---------------------------------------------------------------|

|---------------------------------------------------------------|
|-----12-14-14-14-14p12p10-12~-10~-7-10-10-10-12~-10~-----------|
|---------------------------------------------------------------|
|---------------------------------------------------------------|
|---------------------------------------------------------------|
|---------------------------------------------------------------|
Composición de Joe Satriani
Colaboración y revisión:
  • Paulo Ricardo
35 vistas
    • ½ Tono
    • Am
    • Bbm
    • Bm
    • Cm
    • C#m
    • Dm
    • Ebm
    • Em
    • Fm
    • F#m
    • Gm
    • G#m
  • Agregar a la lista

    0 comentarios

    Ver todos los comentarios

    ¿Lograste tocar?

    0 Tocaron 0 Aún no

    ¡Graba un video tocando Profesor Satchafunkilus y envíanoslo!

    00:00 / 00:00
    Outros vídeos desta música
    Repetir Calidad Automático
    Outros vídeos desta música
    00:00 / 00:00
    Automático
    OK