Cifra Club

Revelation

Joe Satriani

Cifrado: Principal (guitarra y guitarra eléctrica)
tono: G
(intro 4x)
E|--------------------------------------------------------------|
B|------------------------------------------3---3------3-3------|
G|-11---9---11---9---11----7---7---7---7----2---2--2p0-0-0------|
D|-9----9---9----9---9-----5---5---5---5----0---0------0-0------|
A|-7----7---7----7---7-----3---3---3---3----0---0------0-0------|
E|----7---7----7---7----7----3---3---3----3---3---3-------------|

(verso)
E|-------------------------------------------------------------------|
B|-------------------------------------------------------------------|
G|--9b10r9~-7~--5----------------------------------------------------|
D|----------------9-7--7-9~--9-9h10p9p7--7h9~------------------------|
A|-------------------------------------------------------------------|
E|-------------------------------------------------------------------|

E|-----------------------------------------------------------|
B|-----------------------------------------------------------|
G|--9b10r9~-*7~--5-------------------------------------------|
D|-----------------9-7-------------5----5--------------------|
A|----------------------5~-----5-7---7----7------------------|
E|-----------------------------------------------------------|

E|-----------------------------10bhalf--8h10p8h10p8---------------------|
B|----------10-12---10-9-10-12----------------------10~--12\8--10\7-----|
G|--9b10r9~----------------------------------------------------------9~-|
D|----------------------------------------------------------------------|
A|----------------------------------------------------------------------|
E|----------------------------------------------------------------------|

E|---------------------------|
B|---------------------------|
G|--9b10r9~-7~--5------------|
D|----------------9-7--5-----|
A|---------------------------|
E|---------------------------|

(pré-refrão)
E|--17-17-15-17~--17-15-17-18bfull~----------------------|
B|----------------------------------17b18r17b18r17~--15--|
G|-------------------------------------------------------|
D|-------------------------------------------------------|
A|-------------------------------------------------------|
E|-------------------------------------------------------|
(ritmo)
E|------------------------------------------------------|
B|------------------------------------------------------|
G|-7-7-7-7-7-7-7-7-7-7-7--2-2-2-2-2-2-2-2-2-2-2-2-------|
D|-7-7-7-7-7-7-7-7-7-7-7--2-2-2-2-2-2-2-2-2-2-2-0-------|
A|-5-5-5-5-5-5-5-5-5-5-5--0-0-0-0-0-0-0-0-0-0-0-0-------|
E|------------------------------------------------------|

E|--17-17-15-17~--17-15-17-18bfull~--20bfull~------------|
B|-------------------------------------------------------|
G|-------------------------------------------------------|
D|-------------------------------------------------------|
A|-------------------------------------------------------|
E|-------------------------------------------------------|
(ritmo)
E|------------------------------------------------------|
B|------------------------------------------------------|
G|-7-7-7-7-7-7-7-7-7-7-7--2-2-2-2-2-2-2-2-2-2-2-2-------|
D|-7-7-7-7-7-7-7-7-7-7-7--2-2-2-2-2-2-2-2-2-2-2-0-------|
A|-5-5-5-5-5-5-5-5-5-5-5--0-0-0-0-0-0-0-0-0-0-0-0-------|
E|------------------------------------------------------|

(refrão)

(guitarra 1)
E|------------------------10--------------------------------|
B|-------10-12---------10-----------------------------------|
G|-9--12--------9~--12-------12b13r12-11-9--7---------------|
D|---------------------------------------------10-9--7-9----|
A|----------------------------------------------------------|
E|----------------------------------------------------------|

(guitarra 2)
E|-------------------------------------------------------------------|
B|---------------------------15-----------12-------------------------|
G|----9------12------14---12-----12-----9-----12----------12---------|
D|--9-----10------12----------------9-------------12---9------7--9---|
A|-------------------------------------------------------------------|
E|-------------------------------------------------------------------|

(guitarra 1)
E|------------------------10---------------------------------|
B|-------10-12---------10------------------------------------|
G|-9--12--------9~--12-------12b13r12-11-9--7--11/12--11--7~-|
D|-----------------------------------------------------------|
A|-----------------------------------------------------------|
E|-----------------------------------------------------------|

(guitarra 2)
E|-------------------------------------------------------------------|
B|---------------------------15-----------12----------------10----10-|
G|----9------12------14---12-----12-----9-----12--9---9--11----11----|
D|--9-----10------12----------------9---------------9----------------|
A|-------------------------------------------------------------------|
E|-------------------------------------------------------------------|

(guitarra 1)
E|------------------------10--------------------------------|
B|-------10-12---------10-----------------------------------|
G|-9--12--------9~--12-------12b13r12-11-9--7---------------|
D|---------------------------------------------10-9--7-9----|
A|----------------------------------------------------------|
E|----------------------------------------------------------|

(guitarra 2)
E|-------------------------------------------------------------------|
B|---------------------------15-----------12-------------------------|
G|----9------12------14---12-----12-----9-----12----------12---------|
D|--9-----10------12----------------9-------------12---9------7--9---|
A|-------------------------------------------------------------------|
E|-------------------------------------------------------------------|

(guitarra 1)
E|------------------------10---------------------------------|
B|-------10-12---------10------------------------------------|
G|-9--12--------9~--12-------12b13r12-11-9--7--11/12--11--7~-|
D|-----------------------------------------------------------|
A|-----------------------------------------------------------|
E|-----------------------------------------------------------|

(guitarra 2)
E|-------------------------------------------------------------------|
B|---------------------------15-----------12----------------10----10-|
G|----9------12------14---12-----12-----9-----12--9---9--11----11----|
D|--9-----10------12----------------9---------------9----------------|
A|-------------------------------------------------------------------|
E|-------------------------------------------------------------------|

(solo 1)
E|--------------------------------------------------------------------|
B|--15bfull~--17-15--------------------15~--13-12-10----10-12--12brb~-|
G|------------------17-16-17-14--16-17---------------12---------------|
D|--------------------------------------------------------------------|
A|--------------------------------------------------------------------|
E|--------------------------------------------------------------------|

E|-------------------------------------------------------------------|
B|--10----10---------------------------------------------------------|
G|-----12----12h13p12p11-12-11-9-11-12-11bhalf~--9----9~-------------|
D|-------------------------------------------------12----------------|
A|-------------------------------------------------------------------|
E|-------------------------------------------------------------------|

E|--17~--/19-15-----------------------------------------------------------|
B|---------------18bhalfr18-17-15-17-18-17-/19~--/18p16--13---------------|
G|----------------------------------------------------------12-14b15r14~--|
D|------------------------------------------------------------------------|
A|------------------------------------------------------------------------|
E|------------------------------------------------------------------------|

E|----------------20-21-22-23-/24~---16bhalf~---------------------------------|
B|---------------------------------------------17-15--------------------------|
G|-11-9-11-9-----------------------------------------15-14--------------------|
D|-----------13~-------------------------------------------17-14-12-----------|
A|------------------------------------------------------------------14-13-10~-|
E|----------------------------------------------------------------------------|

E|---------------------7-10-6h8p6---------------------------------------/12~~-|
B|---------8-10bfull-8------------8-10~--8---8-10--10bhalf-10bhalf-10-8-------|
G|-------9---------------------------------9----------------------------------|
D|-----9----------------------------------------------------------------------|
A|-/10------------------------------------------------------------------------|
E|----------------------------------------------------------------------------|

E|--12-10-------------12-10------------------------------------------|
B|--------12-10h12~---------12-10bhalf~--8---------------------------|
G|-----------------------------------------9-------------------------|
D|-------------------------------------------9-7-9-*7~---------------|
A|-------------------------------------------------------------------|
E|-------------------------------------------------------------------|

E|-----------/18bfull~-18full~-18b19r18~---------22-24-22-21-20------------------------|
B|---------------------------------------/16px------------------24-23-22--20-----------|
G|--/9~---9------------------------------------------------------------------24-23-22--|
D|------9------------------------------------------------------------------------------|
A|-------------------------------------------------------------------------------------|
E|-------------------------------------------------------------------------------------|

E|-------------------------------------------------------------------|
B|-------------------------18bfull~--18bfull~-17~~-------------------|
G|-21-19-21---18bhalf~-p16-------------------------------------------|
D|-------------------------------------------------------------------|
A|-------------------------------------------------------------------|
E|-------------------------------------------------------------------|
   (Fim do primeiro solo)

(verso)

E|-------------------------------------------------------------------|
B|-------------------------------------------------------------------|
G|--9b10r9~-7~--5----------------------------------------------------|
D|----------------9-7--7-9~--9-9h10p9p7--7h9~------------------------|
A|-------------------------------------------------------------------|
E|-------------------------------------------------------------------|

E|---------------------------|
B|---------------------------|
G|--9b10r9~-*7~--5-----------|
D|-----------------9-7--5----|
A|---------------------------|
E|---------------------------|

(pré-refrão)

E|--17-17-15-17~--17-15-17-18bfull~----------------------|
B|----------------------------------17b18r17b18r17~------|
G|-------------------------------------------------------|
D|-------------------------------------------------------|
A|-------------------------------------------------------|
E|-------------------------------------------------------|

(ritmo)
E|------------------------------------------------------|
B|------------------------------------------------------|
G|-7-7-7-7-7-7-7-7-7-7-7--2-2-2-2-2-2-2-2-2-2-2-2-------|
D|-7-7-7-7-7-7-7-7-7-7-7--2-2-2-2-2-2-2-2-2-2-2-0-------|
A|-5-5-5-5-5-5-5-5-5-5-5--0-0-0-0-0-0-0-0-0-0-0-0-------|
E|------------------------------------------------------|

E|--17-17-15-17~--17-15-17-18bfull~--20bfull~------------|
B|-------------------------------------------------------|
G|-------------------------------------------------------|
D|-------------------------------------------------------|
A|-------------------------------------------------------|
E|-------------------------------------------------------|

(ritmo)
E|------------------------------------------------------|
B|------------------------------------------------------|
G|-7-7-7-7-7-7-7-7-7-7-7--2-2-2-2-2-2-2-2-2-2-2-2-------|
D|-7-7-7-7-7-7-7-7-7-7-7--2-2-2-2-2-2-2-2-2-2-2-0-------|
A|-5-5-5-5-5-5-5-5-5-5-5--0-0-0-0-0-0-0-0-0-0-0-0-------|
E|------------------------------------------------------|

(refrão)

(guitarra 1)
E|-------------------------------------------------------------------|
B|---------------------------15-----------12-------------------------|
G|----9------12------14---12-----12-----9-----12----------12---------|
D|--9-----10------12----------------9-------------12---9------7--9---|
A|-------------------------------------------------------------------|
E|-------------------------------------------------------------------|

(guitarra 1)
E|-------------------------------------------------------------------|
B|---------------------------15-----------12----------------10----10-|
G|----9------12------14---12-----12-----9-----12--9---9--11----11----|
D|--9-----10------12----------------9---------------9----------------|
A|-------------------------------------------------------------------|
E|-------------------------------------------------------------------|

(guitarra 1)
E|------------------------10--------------------------------|
B|-------10-12---------10-----------------------------------|
G|-9--12--------9~--12-------12b13r12-11-9--7---------------|
D|---------------------------------------------10-9--7-9----|
A|----------------------------------------------------------|
E|----------------------------------------------------------|

(guitarra 2)
E|-------------------------------------------------------------------|
B|---------------------------15-----------12-------------------------|
G|----9------12------14---12-----12-----9-----12----------12---------|
D|--9-----10------12----------------9-------------12---9------7--9---|
A|-------------------------------------------------------------------|
E|-------------------------------------------------------------------|

(guitarra 1)
E|------------------------10---------------------------------|
B|-------10-12---------10------------------------------------|
G|-9--12--------9~--12-------12b13r12-11-9--7--11/12--11--7~-|
D|-----------------------------------------------------------|
A|-----------------------------------------------------------|
E|-----------------------------------------------------------|

(guitarra 2)
E|-------------------------------------------------------------------|
B|---------------------------15-----------12----------------10----10-|
G|----9------12------14---12-----12-----9-----12--9---9--11----11----|
D|--9-----10------12----------------9---------------9----------------|
A|-------------------------------------------------------------------|
E|-------------------------------------------------------------------|

(guitarra 1)
E|------------------------10--------------------------------|
B|-------10-12---------10-----------------------------------|
G|-9--12--------9~--12-------12b13r12-11-9--7---------------|
D|---------------------------------------------10-9--7-9----|
A|----------------------------------------------------------|
E|----------------------------------------------------------|

(guitarra 2)
E|-------------------------------------------------------------------|
B|---------------------------15-----------12-------------------------|
G|----9------12------14---12-----12-----9-----12----------12---------|
D|--9-----10------12----------------9-------------12---9------7--9---|
A|-------------------------------------------------------------------|
E|-------------------------------------------------------------------|

(guitarra 3)
E|---------------------------------------------------------------------------------------|
B|---------------------------------------------------------------------------------------|
G|---------12121212---------12b13r12~-------------------------------------12-12-12bhalf~-|
D|---0-*12-----------0-*12----------------------------------------9-11-12----------------|
A|----------------------------------------------------x-x-9-11-12------------------------|
E|---------------------------------------------------------------------------------------|
     +               +

(guitarra 1)
E|------------------------10---------------------------------|
B|-------10-12---------10------------------------------------|
G|-9--12--------9~--12-------12b13r12-11-9--7--11/12--11--7~-|
D|-----------------------------------------------------------|
A|-----------------------------------------------------------|
E|-----------------------------------------------------------|

(guitarra 2)
E|-------------------------------------------------------------------|
B|---------------------------15-----------12----------------10----10-|
G|----9------12------14---12-----12-----9-----12--9---9--11----11----|
D|--9-----10------12----------------9---------------9----------------|
A|-------------------------------------------------------------------|
E|-------------------------------------------------------------------|

(guitarra 3)
E|----------/9-------------------------------------------------|
B|---9b10r9----11b12-------------------------------------------|
G|-------------------------------------------------------------|
D|-------------------------------------------------------------|
A|-------------------------------------------------------------|
E|-------------------------------------------------------------|

(solo 2) 

E|--------------11-11bfull-11-11bfull-11bhalf~--12-10----10-12bhalf~-----|
B|--------10-12---------------------------------------12-----------------|
G|--11-12----------------------------------------------------------------|
D|-----------------------------------------------------------------------|
A|-----------------------------------------------------------------------|
E|-----------------------------------------------------------------------|

E|--12bhalf-12-10-12--12bhalf-12-10-12--12-10----10-------12-10----10-------|
B|--------------------------------------------12-12bhalf~-------12-12bhalf~-|
G|--------------------------------------------------------------------------|
D|--------------------------------------------------------------------------|
A|--------------------------------------------------------------------------|
E|--------------------------------------------------------------------------|

E|--12-10----10-12-/16~--12-10----12-10-----------------------------------------|
B|-----------------------------12--------(scrambled up part)--------------------|
G|------------------------------------------------------------------------------|
D|-----------------------------------------------------------12-11-9-11-9-7-9~--|
A|------------------------------------------------------------------------------|
E|------------------------------------------------------------------------------|

E|-----------------17-18-17b19~-b19~-17b19r15-17-/20-15-----------------------|
B|-------------------------------------------------------18bhalfr18-17--15----|
G|--------9-12-14-------------------------------------------------------------|
D|-9-12-14--------------------------------------------------------------------|
A|----------------------------------------------------------------------------|
E|----------------------------------------------------------------------------|
Composición de Joe Satriani
Colaboración y revisión:
  • Paulo Ricardo
202 vistas
    • ½ Tono
    • A
    • Bb
    • B
    • C
    • Db
    • D
    • Eb
    • E
    • F
    • F#
    • G
    • Ab
  • Agregar a la lista

    0 comentarios

    Ver todos los comentarios

    ¿Lograste tocar?

    1 Tocaron 0 Aún no

    ¡Graba un video tocando Revelation y envíanoslo!

    00:00 / 00:00
    Outros vídeos desta música
    Repetir Calidad Automático
    Outros vídeos desta música
    00:00 / 00:00
    Automático
    OK