Cifra Club

Starry Night

Joe Satriani

Cifrado: Principal (guitarra y guitarra eléctrica)
tono: C
Primeira Parte:
(Frase 1)
E|---------------------------------------------------|
B|---------------8--8~--10---------------------------|
G|-\5~~-7p5-7/9--------------------7p5-7p5--7/9~~\---|
D|---------------------------------------------------|
A|---------------------------------------------------|
E|---------------------------------------------------|
                   P.M       . .
E|---------------------------------------------------|
B|---------------------------------------------------|
G|---------5~~---------5--5------5-------------------|
D|-7p5-7-5-----7p5-7p5-------x-x---------------------|
A|---------------------------------------------------|
E|---------------------------------------------------|

(Frase 2)
E|---------------------------------------------------|
B|----------------------8--8~--10--------------------|
G|-----5~--7p5-7p5-7/9----------------7p5--7--7/9\2~-|
D|-7p5-----------------------------------------------|
A|---------------------------------------------------|
E|---------------------------------------------------|
   P.M.                 .  .        .
E|---------------------------------------------------|
B|---------------------------------------------------|
G|----------------5~~---------5--5-----5~~\----------|
D|-x-x--5/7\5--7--------7--5--------x----------------|
A|---------------------------------------------------|
E|---------------------------------------------------|

(Frase 3)
E|---------------------------------------------------|
B|----------8~-10--13--15b17~-15b17-15-13----13-15b17|
G|----5-7/9-------------------------------14---------|
D|5/7------------------------------------------------
A|---------------------------------------------------|
E|---------------------------------------------------|
                             P.M . . .
E|---------------------------------------------------|
B|---------------13~---------------------------------|
G|-12/14\12--14----------7b8-7-5---5---7/9~----------|
D|-------------------------------7---7---------------|
A|---------------------------------------------------|
E|---------------------------------------------------|

(Frase 4)
E|---------------------------------------------------|
B|--------------------------8--8~--10----------------|
G|---------5~--7p5-7-5-7/9-------------7--5--7--9----|
D|-7p5-7p5-----------------------------------------7~|
A|---------------------------------------------------|
E|---------------------------------------------------|

E|---------------------------------------------------|
B|---------------------------------------------------|
G|------------5~--------5--5-------------------------|
D|-x-5/7\5-7------7p5---------x--5~~-----------------|
A|-------------------------------3~~-----------------|
E|---------------------------------------------------|

Segunda Parte:
(Frase 1)
E|---------------------------------------------------|
B|-----8-10--8~--10---------13-15--13~~--------------|
G|-7/9----------------12/14--------------------------|
D|---------------------------------------------------|
A|---------------------------------------------------|
E|---------------------------------------------------|

E|---------------------------------------------------|
B|-15b17-15-13----13---------------------------------|
G|-------------14----12b14~~-------------------------|
D|---------------------------------------------------|
A|---------------------------------------------------|
E|---------------------------------------------------|

(Frase 2)
E|---------------------------------------------------|
B|---13-15-b17r15p13-15-13-15-15b17-15-13-15b17-15b17|
G|14-------------------------------------------------
D|---------------------------------------------------|
A|---------------------------------------------------|
E|---------------------------------------------------|

E|-15------------------------------------------------|
B|----b17r15p13-----13--15b17------------------------|
G|--------------14-----------------------------------|
D|---------------------------------------------------|
A|---------------------------------------------------|
E|---------------------------------------------------|

(Frase 3)
E|---------------------------------------------------|
B|-------13--15-13-15b17-15b17--13----13~--15b17-----|
G|-12-14---------------------------14----------------|
D|---------------------------------------------------|
A|---------------------------------------------------|
E|---------------------------------------------------|

(Frase 4)
E|---------------------------------------------------|
B|-------13~--15b17--------13--15-13-15b17-15b17--13-|
G|-|12-14-------------12-14---------------------------
D|---------------------------------------------------|
A|---------------------------------------------------|
E|---------------------------------------------------|

E|---------------------------------------------------|
B|----13---------------------------------------------|
G|-14----14\12~--------------------------------------|
D|---------------------------------------------------|
A|---------------------------------------------------|
E|---------------------------------------------------|

(Frase 5)
E|-----------------15--17\---------------------------|
B|--------13-15/17-----------20/22--20--20b22r20-----|
G|-12/14---------------------------------------------|
D|---------------------------------------------------|
A|---------------------------------------------------|
E|---------------------------------------------------|

E|---------------------------------------------------|
B|---------------------------------------------------|
G|-b21r19p17--19b21----------------------------------|
D|---------------------------------------------------|
A|---------------------------------------------------|
E|---------------------------------------------------|

(Frase 6)
E|-----15-18--18b20--b20--b20--b20~~-----------------|
B|-/16-----------------------------------------------|
G|---------------------------------------------------|
D|---------------------------------------------------|
A|---------------------------------------------------|
E|---------------------------------------------------|

E|-18b20--b20--b20--b20~~----------------------------|
B|---------------------------------------------------|
G|---------------------------------------------------|
D|---------------------------------------------------|
A|---------------------------------------------------|
E|---------------------------------------------------|

(Frase 7)
E|-11p8---------8-8---------8---------8---------8----|
B|--------11b13-----8-11b13---8-11b13---8-11b13------|
G|---------------------------------------------------|
D|---------------------------------------------------|
A|---------------------------------------------------|
E|---------------------------------------------------|

E|-------8-------------------------------------------|
B|-11b13------11-------------------------------------|
G|---------10----9~~\--------------------------------|
D|---------------------------------------------------|
A|---------------------------------------------------|
E|---------------------------------------------------|

Terceira Parte:
        P.M     . .         . .         . .         .
E|---------------------------------------------------|
B|-5--5-x-x-5-5-x-x-6p5-6p5-x-x----------------------|
G|-5--5-x-x-5-5-x-x-5---5---x-x-------5-----------5--|
D|-5--5-x-x-5-5-x-x-5---5---x-x-----5---5-------7---7|
A|-3--3-x-x-3-3-x-x-5---5---x-x-5h7-------7-7h8------|
E|---------------------------------------------------|
   ↓  ↑ ↓ ↑ ↓ ↑ ↓ ↑ ↓   ↓   ↓ ↑

   P.M                    . .       . .          . .
E|---------------------------------------------------|
B|----6--------6/8------8-x-x-8--8--x-x--10--10--x-x-|
G|------5------5/7------7-x-x-7--7--x-x--9---9---x-x-|
D|--------7----7/9---9----x-x-9--9--x-x--10--10--x-x-|
A|-8--------8--8/10--10---x-x-10-10-x-x--12--12--x-x-|
E|---------------------------------------------------|
               ↓     ↓  ↑ ↓ ↑ ↓  ↑  ↓ ↑  ↓   ↓   ↓ ↑

           P.M
E|---------------------------------------------------|
B|-5h6-6-6-x-x-5-------------------------------------|
G|-5---5-5-x-x-5-------------------------------------|
D|-7---7-7-x-x-5-------------------------------------|
A|---------------------------------------------------|
E|---------------------------------------------------|
   ↓   ↓ ↑ ↓ ↑ ↓

(Passagem)
E|-8p5-----------------------------------------------|
B|-----8-5-------------------------------------------|
G|---------7p5---------------------------------------|
D|-------------7-5-----------------------------------|
A|-----------------7-5\3~----------------------------|
E|---------------------------------------------------|

Quarta Parte:
(Frase 1)
E|-20~~--17--------------------20b22~----22b24--20~~-|
B|----------x-20b22--20--22--------------------------|
G|---------------------------------------------------|
D|---------------------------------------------------|
A|---------------------------------------------------|
E|---------------------------------------------------|

E|-17----17-20p17----17----------------------17------|
B|----20----------20----20-17h20p17-------17----20p17|
G|----------------------------------19b21------------|
D|---------------------------------------------------|
A|---------------------------------------------------|
E|---------------------------------------------------|

E|---------------------------------------------------|
B|---------------------------------------------------|
G|-19b21r19p17----19----17~~----19b21----------------|
D|-------------19----19------------------------------|
A|---------------------------------------------------|
E|---------------------------------------------------|

(Frase 2)
E|---------------------------------------------------|
B|-17-20p17----17------------------------------------|
G|----------20----20-19p17----19p17----17------------|
D|-------------------------19-------19----19-17-19p17|
A|---------------------------------------------------|
E|---------------------------------------------------|

E|---------------------------------------------------|
B|---------------------------------------------------|
G|----17---------------------------------------------|
D|-19----19-18p17\15~~-------------------------------|
A|---------------------------------------------------|
E|---------------------------------------------------|

(Frase 3)
E|----------------------------------------17-20------|
B|----------------------------------17-20------------|
G|----------------12-12/14-17-17/19------------------|
D|-------10-12/14------------------------------------|
A|-10/12---------------------------------------------|
E|---------------------------------------------------|

E|-20b22----22b24--20~-22b24-------------------------|
B|---------------------------------------------------|
G|---------------------------------------------------|
D|---------------------------------------------------|
A|---------------------------------------------------|
E|---------------------------------------------------|

(Frase 4)
E|-22b24-b24r22-20----20~---22-20--22b24-22b24-20~~--|
B|-----------------22--------------------------------|
G|---------------------------------------------------|
D|---------------------------------------------------|
A|---------------------------------------------------|
E|---------------------------------------------------|

E|-22b24-22b24-20~--22b24-22b24-20~~\----------------|
B|---------------------------------------------------|
G|---------------------------------------------------|
D|---------------------------------------------------|
A|---------------------------------------------------|
E|---------------------------------------------------|

Quinta Parte:
E|---------------------------------------------------|
B|---------------------------------------------------|
G|---------3------3----5-------------------------5---|
D|-------5------5--------5----3------3--------5--5---|
A|-3-5-6-----5------3-----------5------5----5----3---|
E|-------------------------5------6------3-----------|

   P.M . . . .  . . .  . . . . . . .  . .  .  . .
E|---------------------------------------------------|
B|---------------------------------------------------|
G|---------3------3----5---------------------------5-|
D|-------5------5--------5-------3----3---------5--5-|
A|-3-5-6-----5------3------3---5--------5-----5----3-|
E|---------------------------5-----6-------3---------|
Composición de Iggy Pop / Joe Satriani
Colaboración y revisión:
  • Vinícius Dias
  • Nando Suzuki
1.092 vistas
    • ½ Tono
    • A
    • Bb
    • B
    • C
    • Db
    • D
    • Eb
    • E
    • F
    • F#
    • G
    • Ab
  • Agregar a la lista

    0 comentarios

    Ver todos los comentarios

    ¿Lograste tocar?

    7 Tocaron 0 Aún no

    ¡Graba un video tocando Starry Night y envíanoslo!

    00:00 / 00:00
    Outros vídeos desta música
    Repetir Calidad Automático
    Outros vídeos desta música
    00:00 / 00:00
    Automático
    Capítulos
    • Início
    • Tocando a música completa
    • Ajustando a pedaleira
    • Tocando a Primeira Parte
    • Ensinando a Primeira Parte
    • Tocando a Segunda Parte
    • Ensinando a Segunda Parte
    • Tocando a Terceira Parte
    • Ensinando a Terceira Parte
    • Tocando a Quarta Parte
    • Ensinando a Quarta Parte
    • Tocando a Quinta Parte
    • Ensinando a Quinta Parte
    • Encerramento
    OK