Cifra Club

Surfing With The Alien

Joe Satriani

Tab de bajo: Principal
(intro)

     H        Q    E  E     E  E  E  E  E  E  E  E     E  E  E  E  E  E  E  E   
G||----------------------|--------------------------|--------------------------|
D||----------------------|--------------------------|--------------------------|
A||----------------------|--------------------------|-----3-----3--L--3--3--3--|
E||-------------------3--|--L--3--3--3--3--3--3--3--|--6-----6-----------------|

  E  E  E  E  E  E  E  E     E    E  E   E  E  E  E  E   
--------------------------|-----------------------------|
--------------------------|--2br--L--0---------0--------|
--3--3--3--3--3--3--3--3--|-------------/5--L-----------|
--------------------------|-----------------------0--3--|

  E  E  E  E  E  E  E  E     E  E  E  E  E  E  E  E   
--------------------------|--------------------------|
--------------------------|--------------------------|
--------------------------|-----3-----3--L--3--3--3--|
--L--3--3--3--3--3--3--3--|--6-----6-----------------|

  E  E  E  E  E  E  E  E     E  E  E  E  Q    E  E     E  E  E  E  E  E  E  E   
--------------------------|-------------------------|--------------------------|
-----------------0--3--0--|--5--0--3--0--L----------|--------------------------|
--3--3--3--3--3-----------|-------------------------|--------------------------|
--------------------------|-------------------0--3--|--L--3--3--3--3--3--3--3--|

  E  E  E  E  E  E  E  E     E  E  E  E  E  E  E  E   
--------------------------|--------------------------|
--------------------------|--------------------------|
-----3-----3--L--3--3--3--|--3--3--3--3--3--3--3--3--|
--6-----6-----------------|--------------------------|

  E    E  E  E  E  E  E  E     E  E  E  E  E  E  E  E   
----------------------------|--------------------------|
--2br--L--0--------0--------|--------------------------|
-------------5--L-----------|--------------------------|
----------------------0--3--|--L--3--3--3--3--3--3--3--|

  E  E  E  E  E  E  E  E     E  E  E  E  E  E  E  E   
--------------------------|--------------------------|
--------------------------|-----------------0--3--0--|
-----3-----3--L--3--3--3--|--3--3--3--3--3-----------|
--6-----6-----------------|--------------------------|

  E  E  E  E  E  E  E  E     E  E  E  E  E  E  E  E   
--------------------------|--------------------------|
--5--0--3--0--------------|--------------------------|
--------------------------|--------------------------|
--------------0--3--0--3--|--L--3--3--3--3--3--3--3--|

  E  E  E  E  E  E  E  E     E  E  E  E  E  E  E  E   
--------------------------|--------------------------|
--------------------------|--------------------------|
-----3-----3--L--3--3--3--|--3--3--3--3--3--3--3--3--|
--6-----6-----------------|--------------------------|

  E    E  E  E  E  E  E  E     E  E  E  E  E  E  E  E   
----------------------------|--------------------------|
--2br--L--0--------0--------|--------------------------|
-------------5--L-----------|--------------------------|
----------------------0--3--|--L--3--3--3--3--3--3--3--|

  E  E  E  E  E  E  E  E     E  E  E  E  E  E  E  E   
--------------------------|--------------------------|
--------------------------|-----------------0--3--0--|
-----3-----3--L--3--3--3--|--3--3--3--3--3-----------|
--6-----6-----------------|--------------------------|

  E  E  E  E  E  E  E  E     E  E  E  E  E  E  E  E   
--------------------------|--------------------------|
--5--0--3--0--L-----------|--------------------------|
--------------------------|--------------------------|
-----------------3--0--0--|--L--0--0--0--0--0--0--0--|

  E  E  E  E  E  E  E  E     E  E  E  E  E  E  E  E   
--------------------------|--------------------------|
--------------------------|--------------------------|
-----------------------3--|--L--3--3--3--3--3--3--3--|
--0--0--0--0--0--0--0-----|--------------------------|

  E  E  E  E  E  E  E  E     E  E  E  E  E  E  E  E   
--------------------------|--------------------------|
--------------------------|--------------------------|
--3--3--3--3--3-----------|--------------------------|
-----------------5--5--3--|--L--3--3--3--3--3--3--3--|

  E  E  E  E  E  E  E  E     E  E  E  E  E  E  E  E   
--------------------------|--------------------------|
--------------------------|--------------------------|
-----------------3--0--5--|--L--5--5--5--5--5--5--5--|
--3--3--3--3--3-----------|--------------------------|

  E  E  E  E  E    E  E  E     Q    Q    E  E  E  E   
----------------------------|------------------------|
----------------------------|------------------------|
--5--5--5-------------------|------------------------|
-----------0--5br--L--3--0--|--L----L----0--0--0--L--|

  E  E  E  E  E   E  E  E     E  E  E  E  E  E  E  E   
---------------------------|--------------------------|
---------------------------|--------------------------|
---------------------0--3--|--L--3--3--3--3--3--3--3--|
--0--0--0--0--0--/3--------|--------------------------|

  E  E  E  E  Q    E  E     E  E  E  E  E  E  E  E     E  E  E  E  E  E  E  E   
-------------------------|--------------------------|--------------------------|
-------------------------|--------------------------|--------------------------|
--3--3--3--3--3----------|--------------------------|-----------------------5--|
-------------------0--3--|--3--3--3--3--3--3--3--3--|--3--3--3--3--3--3--L-----|

  E  E  E  E  E  E  E  E     Q    Q    Q    E  E     E  E  E  E  E  E  E  E   
--------------------------|-----------------------|--------------------------|
--------------------------|-----------------------|--------------------------|
--L--5--5--5--5--5--5--5--|--5-----------------4--|--4--4--4--4--4--4--4--4--|
--------------------------|-----------------------|--------------------------|

  E  E  E  E  E  E  E  E     E  E  E  E  E  E  E  E   
--------------------------|--------------------------|
--------------------------|--------------------------|
--4--4--4--4-----4--5--4--|-----4--4--4--4--4--4--4--|
--------------7-----------|--L-----------------------|

  E  E  E  E  E  E  E  E     E  E  E  E  E  E  E  E   
--------------------------|--------------------------|
--------------------------|--------------------------|
--4--4--4--4-----4--5--5--|--L--4--4--4--4--4--4--4--|
--------------7-----------|--------------------------|

  E  E  E  E  E  E  E  S S    E  E  E  E  E  E  E  E   
---------------------------|--------------------------|
---------------------------|--------------------------|
--4--4--4--4-----4--5--4-4-|--4--4--4--4--4--4--4--4--|
--------------7------------|--------------------------|

  E  E  E  E  E  E  E  E     E  E  E  E  E  E  E  E   
--------------------------|--------------------------|
-----------------------1--|--L-----------------------|
--4--4--4--4--4--5--------|-----6--6--6--6--6--6--6--|
--------------------0-----|--------------------------|

  E  E  E  E  E  E  E  E     E  E  E  E  E  E  E  E   
--------------------------|--------------------------|
--------------------------|--------------------------|
--6--6--6--6-----6--6-----|-----6--6--6--6--6--6--6--|
--------------9--------0--|--L-----------------------|

  E  E  E  E  E  E  E  E     E  E  E  E  E  E  E  E   
--------------------------|--------------------------|
--------------------6-----|--------------------------|
--6--6--6--6--4--6-----6--|--L--6--6--6--6--6--6--6--|
--------------------------|--------------------------|

  E  E  E  E  E  E  E  E     E  E  E  E  E  E  E  E   
--------------------------|--------------------------|
--------------------------|--------------------------|
--6--6--6--6--4--6--6-----|-----6--6--6--6--6--6--6--|
-----------------------0--|--0-----------------------|

  E  E  E  E  E  E  E  E     E  E  E  E  E  E  E  E   
--------------------------|--------------------------|
--------------1-----------|--------------------------|
--6--6--6--6--------------|--------------------------|
-----------------1--2--1--|--L--1--1--1--1--1--1--1--|

  E  E  E  E  E  E  E  E     E  E  E  E  E  E  E  E   
--------------------------|--------------------------|
--------------1-----------|--------------------------|
--------------------------|--------------------------|
--1--1--1--1-----1--1--2--|--L--1--1--1--1--1--1--1--|

  E  E  E  E  E  E  E  E     E  E  E  E  E  E  E  E   
--------------------------|--------------------------|
--------------1-----4-----|--------------------------|
--------------------------|--------------------------|
--1--1--1--1-----1-----1--|--L--1--1--1--1--1--1--1--|

  E  E  E  E  E  E  E  E     E  E  E  E  E  E  E  E   
--------------------------|--------------------------|
--------------1-----------|--------------------------|
--------------------------|--------------------------|
--1--1--1--1-----1--1--2--|--1--1--1--1--1--1--1--1--|

  E  E  E  E  E  E  E  E     Q    Q    H           H        E  E  E  E   
--------------------------|-------0----0--------|--L--------L--L--L--L--|
--------------------------|---------------------|-----------------------|
--------------------------|---------------------|-----------------------|
--1--1--1--1--1--1--0--1--|--3----L----L--------|--L--------------------|

  W                   Q.     E  E  E  E  E     E  E  E  E  E  E  E  E   
--L----------------|------------------------|--------------------------|
-------------------|--2---------------------|--------------------------|
-------------------|---------3--L--5--0-----|--------------------------|
-------------------|---------------------3--|--L--3--3--3--3--3--3--3--|

  E  E  E  E  E  E  E  E     E  E  E  E  E  E  E  E   
--------------------------|--------------------------|
--------3-----------------|--------------------------|
-----3-----3--L--3--3--3--|--3--3--3--3--3--3--3--3--|
--6-----------------------|--------------------------|

  E    E  E  E  E  E  E  E     E  E  E  E  E  E  E  E   
----------------------------|--------------------------|
--2br--L--0-----------------|--------------------------|
----------------------------|--------------------------|
-------------3--L--3--0--3--|--3--3--3--3--3--3--3--3--|

  E  E  E  E  E  E  E  E     E  E  E  E  E  E  E  E   
--------------------------|--------------------------|
--------------------------|-----------------0--3--0--|
-----3-----3--L--3--3--3--|--3--3--3--3--3-----------|
--6-----6-----------------|--------------------------|

  E  E  E  E  E  E  E  E     E  E  E  E  E  E  E  E   
--------------------------|--------------------------|
--5--0--3--0--------------|--------------------------|
--------------------------|--------------------------|
--------------0--3--0--3--|--L--3--3--3--3--3--3--3--|


  E  E  E  E  E  E  E  E     E  E  E  E  E  E  E  E   
--------------------------|--------------------------|
--------------------------|--------------------------|
-----3-----3--L--3--3--3--|--3--3--3--3--3--3--3--3--|
--6-----6-----------------|--------------------------|

  E    E  E  E  E  E  E  E     E  E  E  E  E  E  E  E   
----------------------------|--------------------------|
--2br--L--0-----------------|--------------------------|
----------------------------|--------------------------|
-------------3--L--3--0--3--|--3--3--3--3--3--3--3--3--|

  E  E  E  E  E  E  E  E     E  E  E  E  E  E  E  E   
--------------------------|--------------------------|
--------3-----------------|-----------------0--3--0--|
-----3-----3--L--3--3--3--|--3--3--3--3--3-----------|
--6-----------------------|--------------------------|

  E  E  E  E  E  E  E  E     E  E  E  E  E  E  E  E   
--------------------------|--------------------------|
--5--0--3--0--------------|--------------------------|
--------------------------|--------------------------|
--------------0--3--0--0--|--L--0--0--0--0--0--0--0--|

  E  E  E  E  E  E  E  E     E  E  E  E  E  E  E  E   
--------------------------|--------------------------|
--------------------------|--------------------------|
-----------------------3--|--L--3--3--3--3--3--3--3--|
--0--0--0--0--0--0--0-----|--------------------------|

  E  E  E  E  E  E  E  E     E  E  E  E  E  E  E  E   
--------------------------|--------------------------|
--------------------------|--------------------------|
--3--3--3--3--3-----------|--------------------------|
-----------------5--5--3--|--L--3--3--3--3--3--3--3--|

  E  E  E  E  E  E  E  E     E  E  E  E  E  E  E  E   
--------------------------|--------------------------|
--------------------------|--------------------------|
-----------------3--0--5--|--L--5--5--5--5--5--5--5--|
--3--3--3--3--3-----------|--------------------------|

  E  E  E  E  E    E  E  E     Q    Q    E  E  E  E   
----------------------------|------------------------|
----------------------------|------------------------|
--5--5--5-------------------|------------------------|
-----------0--5br--L--3--0--|--L----L----0--0--0--L--|

  E  E  E  E  E   E  E  E     E  E  E  E  E  E  E  E   
---------------------------|--------------------------|
---------------------------|--------------------------|
---------------------0--3--|--L--3--3--3--3--3--3--3--|
--0--0--0--0--0--/3--------|--------------------------|

  E  E  E  E  Q    E  E     E  E  E  E  E  E  E  E     E  E  E  E  E  E  E  E   
-------------------------|--------------------------|--------------------------|
-------------------------|--------------------------|--------------------------|
--3--3--3--3--3----------|--------------------------|-----------------------5--|
-------------------0--3--|--3--3--3--3--3--3--3--3--|--3--3--3--3--3--3--0-----|

  E  E  E  E  E  E  E  E     Q    Q    H           W                 
--------------------------|---------------------|-------------------|
--------------------------|---------------------|-------------------|
--L--5--5--5--5--5--5--5--|--5------------------|-------------------|
--------------------------|---------------------|-------------------|

  W                   H        Q    E  E     E  E  E  E  E  E  E  E   
-------------------|----------------------|--------------------------|
-------------------|----------------------|--------------------------|
-------------------|----------------------|--------------------------|
-------------------|-------------------3--|--L--3--3--3--3--3--3--3--|

  E  E  E  E  E  E  E  E     E  E  E  E  E  E  E  E   
--------------------------|--------------------------|
--------------------------|--------------------5-----|
-----3-----3--L--3--3--3--|--3--3--3--3--3--3-----0--|
--6-----6-----------------|--------------------------|

  E    E  E  E  E  E  E  E     E  E  E  E  E  E  E  E   
----------------------------|--------------------------|
--2br--L--0-----------------|--------------------------|
----------------------------|--------------------------|
-------------3--L--3--0--3--|--3--3--3--3--3--3--3--3--|

  E  E  E  E  E  E  E  E     E  E  E  E  E  E  E  E   
--------------------------|--------------------------|
--------------------------|-----------------0--3--0--|
-----3-----3--L--3--3--3--|--3--3--3--3--3-----------|
--6-----6-----------------|--------------------------|

  E  E  E  E  E  E  E  E     E  E  E  E  E  E  E  E   
--------------------------|--------------------------|
--5--0--3--0--L-----------|--------------------------|
--------------------------|--------------------------|
-----------------3--0--3--|--L--3--3--3--3--3--3--3--|

  E  E  E  E  E  E  E  E     E  E  E  E  E  E  E  E   
--------------------------|--------------------------|
--------3-----------------|--------------------5-----|
-----3-----3--L--3--3--3--|--3--3--3--3--3--3-----0--|
--6-----------------------|--------------------------|

  E    E  E  E  E  E  E  E     E  E  E  E  E  E  E  E   
----------------------------|--------------------------|
--2br--L--0-----------------|--------------------------|
----------------------------|--------------------------|
-------------3--L--3--0--3--|--L--3--3--3--3--3--3--3--|

  E  E  E  E  E  E  E  E     E  E  E  E  E  E  E  E   
--------------------------|--------------------------|
--------------------------|-----------------0--3--0--|
-----3-----3--L--3--3--3--|--3--3--3--3--3-----------|
--6-----6-----------------|--------------------------|

  E  E  E  E  E  E  E  E     E  E  E  E  E  E  E  E   
--------------------------|--------------------------|
--5--0--3--0--L-----------|--------------------------|
--------------------------|--------------------------|
-----------------3--0--3--|--L--3--3--3--3--3--3--3--|

  E  E  E  E  E  E  E  E     E  E  E  E  E  E  E  E   
--------------------------|--------------------------|
--------------------------|--------------------------|
-----3-----3--L--3--3--3--|--3--3--3--3--3--3--3--3--|
--6-----6-----------------|--------------------------|

  E    E  E   E  E  E  E  E     E  E  E  E  E  E  E  E   
-----------------------------|--------------------------|
--2br--L--0---------0--------|--------------------------|
-------------/5--L-----------|--------------------------|
-----------------------0--3--|--L--3--3--3--3--3--3--3--|

  E  E  E  E  E  E  E  E     E  E  E  E  E  E  E  E     E  E  E  E  Q    E  E   
--------------------------|--------------------------|-------------------------|
--------------------------|-----------------0--3--0--|--5--0--3--0--L----------|
-----3-----3--L--3--3--3--|--3--3--3--3--3-----------|-------------------------|
--6-----6-----------------|--------------------------|-------------------0--3--|

  E  E  E  E  E  E  E  E     E  E  E  E  E  E  E  E   
--------------------------|--------------------------|
--------------------------|--------------------------|
--------------------------|-----3-----3--L--3--3--3--|
--L--3--3--3--3--3--3--3--|--6-----6-----------------|

  E  E  E  E  E  E  E  E     E    E  E   E  E  E  E  E   
--------------------------|-----------------------------|
--------------------------|--2br--L--0---------0--------|
--3--3--3--3--3--3--3--3--|-------------/5--L-----------|
--------------------------|-----------------------0--3--|

  E  E  E  E  E  E  E  E     E  E  E  E  E  E  E  E   
--------------------------|--------------------------|
--------------------------|--------------------------|
--------------------------|-----3-----3--L--3--3--3--|
--L--3--3--3--3--3--3--3--|--6-----6-----------------|

  E  E  E  E  E  E  E  E     E  E  E  E  Q    E  E     E  E  E  E  E  E  E  E   
--------------------------|-------------------------|--------------------------|
-----------------0--3--0--|--5--0--3--0--L----------|--------------------------|
--3--3--3--3--3-----------|-------------------------|--------------------------|
--------------------------|-------------------0--3--|--L--3--3--3--3--3--3--3--|

  E  E  E  E  E  E  E  E     E  E  E  E  E  E  E  E   
--------------------------|--------------------------|
--------------------------|--------------------------|
-----3-----3--L--3--3--3--|--3--3--3--3--3--3--3--3--|
--6-----6-----------------|--------------------------|

  E    E  E   E  E  E  E  E     E  E  E  E  E  E  E  E   
-----------------------------|--------------------------|
--2br--L--0---------0--------|--------------------------|
-------------/5--L-----------|--------------------------|
-----------------------0--3--|--L--3--3--3--3--3--3--3--|

  E  E  E  E  E  E  E  E     E  E  E  E  E  E  E  E     E  E  E  E  Q    E  E   
--------------------------|--------------------------|-------------------------|
--------------------------|-----------------0--3--0--|--5--0--3--0--L----------|
-----3-----3--L--3--3--3--|--3--3--3--3--3-----------|-------------------------|
--6-----6-----------------|--------------------------|-------------------0--3--|

  E  E  E  E  E  E  E  E     E  E  E  E  E  E  E  E   
--------------------------|--------------------------|
--------------------------|--------------------------|
--------------------------|-----3-----3--L--3--3--3--|
--L--3--3--3--3--3--3--3--|--6-----6-----------------|

  E  E  E  E  E  E  E  E     E  E  E  E  Q    E  E     E  E  E  E  E  E  E  E   
--------------------------|-------------------------|--------------------------|
-----------------0--3--0--|--5--0--3--0--L----------|--------------------------|
--3--3--3--3--3-----------|-------------------------|--------------------------|
--------------------------|-------------------0--3--|--L--3--3--3--3--3--3--3--|

  E  E  E  E  E  E  E  E     E  E  E  E  E  E  E  E     E  E  E  E  Q    E  E   
--------------------------|--------------------------|-------------------------|
--------------------------|-----------------0--3--0--|--5--0--3--0--L----------|
-----3-----3--L--3--3--3--|--3--3--3--3--3-----------|-------------------------|
--6-----6-----------------|--------------------------|-------------------0--3--|

  E  E  E  E  E  E  E  E     E  E  E  E  E  E  E  E   
--------------------------|--------------------------|
--------------------------|--------------------------|
--------------------------|-----3-----3--L--3--3--3--|
--L--3--3--3--3--3--3--3--|--6-----6-----------------|

  E  E  E  E  E  E  E  E     E    E  E   E  E  E  E  E   
--------------------------|-----------------------------|
--------------------------|--2br--L--0---------0--------|
--3--3--3--3--3--3--3--3--|-------------/5--L-----------|
--------------------------|-----------------------0--3--|


  E  E  E  E  E  E  E  E     E  E  E  E  E  E  E  E   
--------------------------|--------------------------|
--------------------------|--------------------------|
--------------------------|-----3-----3--L--3--3--3--|
--L--3--3--3--3--3--3--3--|--6-----6-----------------|

  E  E  E  E  E  E  E  E     E  E  E  E  Q    E  E     E  E  E  E  E  E  E  E   
--------------------------|-------------------------|--------------------------|
-----------------0--3--0--|--5--0--3--0--L----------|--------------------------|
--3--3--3--3--3-----------|-------------------------|--------------------------|
--------------------------|-------------------0--3--|--L--3--3--3--3--3--3--3--|

  E  E  E  E  E  E  E  E     E  E  E  E  E  E  E  E   
--------------------------|--------------------------|
--------------------------|--------------------------|
-----3-----3--L--3--3--3--|--3--3--3--3--3--3--3--3--|
--6-----6-----------------|--------------------------|

  E    E  E   E  E  E  E  E     E  E  E  E  E  E  E  E   
-----------------------------|--------------------------|
--2br--L--0---------0--------|--------------------------|
-------------/5--L-----------|--------------------------|
-----------------------0--3--|--L--3--3--3--3--3--3--3--|

  E  E  E  E  E  E  E  E     E  E  E  E  E  E  E  E     E  E  E  E  Q    E  E   
--------------------------|--------------------------|-------------------------|
--------------------------|-----------------0--3--0--|--5--0--3--0--L----------|
-----3-----3--L--3--3--3--|--3--3--3--3--3-----------|-------------------------|
--6-----6-----------------|--------------------------|-------------------0--3--|

  E  E  E  E  E  E  E  E     E  E  E  E  E  E  E  E   
--------------------------|--------------------------|
--------------------------|--------------------------|
--------------------------|-----3-----3--L--3--3--3--|
--L--3--3--3--3--3--3--3--|--6-----6-----------------|

  E  E  E  E  E  E  E  E     E    E  E   E  E  E  E  E   
--------------------------|-----------------------------|
--------------------------|--2br--L--0---------0--------|
--3--3--3--3--3--3--3--3--|-------------/5--L-----------|
--------------------------|-----------------------0--3--|

  E  E  E  E  E  E  E  E     E  E  E  E  E  E  E  E   
--------------------------|--------------------------|
--------------------------|--------------------------|
--------------------------|-----3-----3--L--3--3--3--|
--L--3--3--3--3--3--3--3--|--6-----6-----------------|

  E  E  E  E  E  E  E  E     E  E  E  E  Q    E  E    
--------------------------|-------------------------||
-----------------0-----0--|-----0-----0--L----------||
--3--3--3--3--3-----------|-------------------------||
--------------------1-----|--3-----1----------0--3--||

Composición de Joe Satriani
Colaboración y revisión:
  • Paulo Ricardo
42 vistas

0 comentarios

Ver todos los comentarios

¿Lograste tocar?

0 Tocaron 0 Aún no

¡Graba un video tocando Surfing With The Alien y envíanoslo!

00:00 / 00:00
Outros vídeos desta música
Repetir Calidad Automático
Outros vídeos desta música
00:00 / 00:00
Automático
OK