Cifra Club

Tears in the rain

Joe Satriani

Cifrado: Principal (guitarra y guitarra eléctrica)
tono: Am
[Primeira Parte]

   Am4            G#°                       Am4
E|-------0-----|-------0-----|-------0-----|-------0-----|
B|-----3---3---|-----3---3---|-----6---6---|-----3---3---|
G|---5-------5-|---4-------4-|---7-------7-|---5-------5-|
D|-7-----------|-3-----------|-6-----------|-7-----------|
A|-------------|-------------|-------------|-------------|
E|-------------|-------------|-------------|-------------|

   Am4           G#°                       Am4
E|-------0-----|-------0-----|-------0-----|-------0-----|
B|-----3---3---|-----3---3---|-----6---6---|-----3---3---|
G|---5-------5-|---4-------4-|---7-------7-|---5-------5-|
D|-7-----------|-3-----------|-6-----------|-7-----------|
A|-------------|-------------|-------------|-------------|
E|-------------|-------------|-------------|-------------|

   Am5+          Am            Am5+          Am
E|-------8-----|-------5-----|-------0-----|-------5-----|
B|-----6---6---|-----5---5---|-----6---6---|-----5---5---|
G|---9-------9-|---5-------5-|---9-------9-|---5-------5-|
D|-7-----------|-7-----------|-7-----------|-7-----------|
A|-------------|-------------|-------------|-------------|
E|-------------|-------------|-------------|-------------|

   F7+                         G#°
E|-------0-----|-------0-----|-------0-----|-------0-----|
B|-----1---1---|-----1---1---|-----3---3---|-----3---3---|
G|---2-------2-|---2-------2-|---4-------4-|---4-------4-|
D|-3-----------|-3-----------|-3-----------|-3-----------|
A|-------------|-------------|-------------|-------------|
E|-------------|-------------|-------------|-------------|

   Am/E          E7/G#                       Am
E|-------0-----|-------0-----|-------------|-------------|
B|-----1---1---|-----0---0---|-------------|-------------|
G|---2-------2-|---1-------1-|-------------|-------------|
D|-2-----------|-2-----------|-------------|-------------|
A|-------------|-------------|-0-2-3-----2-|-0-----------|
E|-------------|-------------|-------0-4---|-------------|

[Segunda Parte]

   Am            G#°                       Am4
E|-------0-----|-------0-----|-------0-----|-------0-----|
B|-----3---3---|-----3---3---|-----6---6---|-----3---3---|
G|---5-------5-|---4-------4-|---7-------7-|---5-------5-|
D|-------------|-3-----------|-6-----------|-------------|
A|-0-----------|-------------|-------------|-0-----------|
E|-------------|-------------|-------------|-------------|

   Am4           G#°                       Am4
E|-------0-----|-------0-----|-------0-----|-------0-----|
B|-----3---3---|-----3---3---|-----6---6---|-----3---3---|
G|---5-------5-|---4-------4-|---7-------7-|---5-------5-|
D|-------------|-3-----------|-6-----------|-------------|
A|-0-----------|-------------|-------------|-0-----------|
E|-------------|-------------|-------------|-------------|

   Dm7/9                        C6/7+         
E|-------8-----|-------8-----|--------7----|-------7-----|
B|-----6---6---|-----6---6---|-----10--10--|----10--10---|
G|---9-------9-|---9-------9-|---9-------9-|---9-------9-|
D|-0-----------|-0-----------|-------------|-------------|
A|-------------|-------------|-------------|-------------|
E|-------------|-------------|-8-----------|-8-----------|

   Bm4/7         E7            Dm/A          Am
E|-------0-----|-------0-----|-------1-----|-------0-----|
B|-----3---3---|-----3---3---|-----3---3---|-----1---1---|
G|---2-------2-|---1-------1-|---2-------2-|---2-------2-|
D|-------------|-------------|-------------|-------------|
A|-2-----------|-------------|-0-----------|-0-----------|
E|-------------|-0-----------|-------------|-------------|

   Dm7/9                        C6/7+         
E|-------8-----|-------8-----|------7------|------7------|
B|-----6---6---|-----6---6---|----10--10---|----10--10---|
G|---9-------9-|---9-------9-|---9-------9-|---9-------9-|
D|-0-----------|-0-----------|-------------|-------------|
A|-------------|-------------|-------------|-------------|
E|-------------|-------------|-8-----------|-8-----------|

   G#°                                   
E|-------7-----|-------4-----|-------1-----|-------------|
B|-----6---6---|-----3---3---|-----0---0---|--------3----|
G|---7-------7-|---4-------4-|---1-------1-|------1---1--|
D|-6-----------|-3-----------|-0-----------|---3--------3|
A|-------------|-------------|-------------|-2-----------|
E|-------------|-------------|-------------|-------------|

   G#°                       Am/E          E
E|-------------|-------------|-------------|-------------|
B|-------3-----|-------0-----|-------1-----|-------0-----|
G|-----4---4---|-----1---1---|-----2---2---|-----1---1---|
D|---3-------3-|---0-------0-|---2-------2-|---2-------2-|
A|-------------|-------------|-------------|-------------|
E|-4-----------|-1-----------|-0-----------|-0-----------|

   Am            Am/E          Am
E|-------------|-------------|-------5---7-|-8-----------|
B|-------------|-------5-----|-----5-----3-|-5-----------|
G|-------5-----|-----5---5---|---5---------|-------------|
D|-----7---7---|---7-------7-|-7-----------|-------------|
A|---7-------7-|-7-----------|-------------|---0---------|
E|-5-----------|-------------|-------------|-------------|
Composición de Joe Satriani
Colaboración y revisión:
  • Renan Barbosa
  • Álvaro Vicente
  • wendel oliveira
877 vistas
    • ½ Tono
    • Am
    • Bbm
    • Bm
    • Cm
    • C#m
    • Dm
    • Ebm
    • Em
    • Fm
    • F#m
    • Gm
    • G#m
  • Agregar a la lista

    0 comentarios

    Ver todos los comentarios

    ¿Lograste tocar?

    5 Tocaron 0 Aún no

    ¡Graba un video tocando Tears in the rain y envíanoslo!

    00:00 / 00:00
    Outros vídeos desta música
    Repetir Calidad Automático
    Outros vídeos desta música
    00:00 / 00:00
    Automático
    OK