Cifra Club

Aprenda

Until We Say Goodbye

Joe Satriani

Tablatura: Principal (guitarra)
Tom: A
|----------------------------------------|--------------------------------------| 
|----------------------------------------|--------------------------------------| 
|----------------------------------------|--------------------------------------| 
|------10--------10----------12--14------|----12-~---10----12----12/14----------| 
|--12-------12---------12----------------|-------------------------------12-----| 
|----------------------------------------|--------------------------------------| 
 
 
|----------------------------------------|--------------------------------------| 
|----------------------------------------|--------------------------------------| 
|----------------------------------------|--------------------------------------| 
|------10--------10----------12--14------|--------10-------10----14---12---14---| 
|--12-------12---------12----------------|----12-------12-----------------------| 
|----------------------------------------|--------------------------------------| 
 
softly----------------------------  
|----------------------------------------|--------------------------------------| 
|------------------13p10--10-------------|---10/1310----8-----------8/10-------| 
|------12---14---------------------------|--------------------------------------| 
|--14------------------------------------|--------------------------------------| 
|----------------------------------------|--------------------------------------| 
|----------------------------------------|--------------------------------------| 
 
 
|----------------------------------------|--------------------------------------| 
|----------------------------------------|--------------------------------------| 
|----------------------------------------|--------------------------------------| 
|------10--------10----------12--14------|----12-~---10----12----12/14----------| 
|--12-------12---------12----------------|-------------------------------12-----| 
|----------------------------------------|--------------------------------------| 
 
|-----------------------------------------|--------------------------------------| 
|-----------------------------------------|--------------------------------------| 
|-----------------------------------------|--------------------------------------| 
|-----------------------------------------|--------10-------10----14---12---14---| 
|--14----14-~-----12---10-----------------|----12-------12-----------------------| 
|---------------------------12----12/15---|--------------------------------------| 
 
 
|-----------------------------------------|--------------------------------------| 
|------------------13-----10-----10-------|--------------------------------------| 
|------12---14----------------------------|--------12~-------12~---------12/14---| 
|--14-------------------------------------|---14--------14----------14-----------| 
|-----------------------------------------|--------------------------------------| 
|-----------------------------------------|--------------------------------------| 
 
|----------------------------------------|------------------------------------------| 
|----------------------------------------|------------------------------------------| 
|----------------------------------------|------------------------------------------| 
|--12h14---12h14-----12----14------------|----14---15--14h15p1412---12/14---14--12-| 
|----------------------------------------|------------------------------------------| 
|----------------------------------------|------------------------------------------| 
 
|----------------------------------------|-------------------------------| 
|----------------------------------------|-------------------------------| 
|------------------------------10/12-----|-------------------------------| 
|--12/14--14-----12----14----------------|----15--14h15p1412--12/14-----| 
|----------------------------------------|-------------------------------| 
|----------------------------------------|-------------------------------| 
 
 
|----------------------------------------|------------------------------------------| 
|----------------------------------------|------------------------------------------| 
|----------------------------------------|------------------------------------------| 
|--12h14---12h14-----12----14------------|-----------------12---------11------------| 
|----------------------------------------|----12--12--12------------------12--------| 
|----------------------------------------|------------------------------------------| 
 
 
|--15------13---12-----------------------|-------------------------------| 
|--------------------15-------12b13r12---|----10-------------------------| 
|----------------------------------------|---------12-----12/14----------| 
|----------------------------------------|-------------------------------| 
|----------------------------------------|-------------------------------| 
|----------------------------------------|-------------------------------| 
 
 
This part is hard to tab. I might have mistakes. 
If you have any corrections, email me. 
|-------------------------------------------------------------------| 
|--6---6----------------12--13--12----------12--13--12--13----------| 
|--5---5----------------12--12--12----14----12--12--12--12----------| 
|-------------------------------------14----------------------------| 
|-------------------------------------------------------------------| 
|-------------------------------------------------------------------| 
 
 
|----------------------------------------------------------------------------| 
|-------15---15-----15--15----15---15--------------12--12--12--12---12--13---| 
|-------12---12-----12--12---------12--------------12--12--12--12---12--12---| 
|--14-----------------------------------14---14------------------------------| 
|----------------------------------------------------------------------------| 
|----------------------------------------------------------------------------| 
 
scratch string with pick  
|-----------------------------------------20---19-----17p15p12--------------------------------| 
|--13-----13-------13---------------------x----x----------------------------------------------| 
|--12-----12----------14----------------------------------------14----------x----------------| 
|------------------------14--------------------------------------------------x----------------| 
|--------------------------15-----------------------------------------------------------------| 
|---------------------------------------------------------------------------------------------| 
 
Pm------ 
|--------------------------------------------------------------------------------10--12--13---| 
|-----------------------------------------------------------------10-11-10---13---------------| 
|--10--9/7--5/7---7-9-10-9----7--5/75/7------9h10p9p7---9-10-12------------------------------| 
|---------------------------------------------------------------------------------------------| 
|---------------------------------------------------------------------------------------------| 
|---------------------------------------------------------------------------------------------| 
 
 
|-10--12--------10----------------------------------------------------------------------------| 
|----------13--------10---13---10/------------------------------------------------------------| 
|-------------------------------------1914---1210-------------------------------------------| 
|----------------------------------------------------1210------------------------------------| 
|------------------------------------------------------------1210----8/78--10/1210---------| 
|---------------------------------------------------------------------------------------------| 
 
 
|------------------------------------------------------------------------------------------13-| 
|---------------------------------------------------15---13----------------------------15-----| 
|------------------------------------14---12----14------------151412/14----1412/14---------| 
|-15---12----14~--14~---12/14---15------------------------------------------------------------| 
|---------------------------------------------------------------------------------------------| 
|---------------------------------------------------------------------------------------------| 
 
 
|------12-------------------------------------------------------------------------------------| 
|--15------15---13p10-----13--10--------------------------------------------------------------| 
|---------------------12-------------------12-------------------------------------------------| 
|-----------------------------------1210------10h12p10---------------------------------------| 
|---------------------------------------------------------10h12p10---8/10--8--7--87--53-----| 
|---------------------------------------------------------------------------------------------| 
 
 
|---------------------------------------------------------------------------------------------| 
|------------------------------------------------------------------------------------10h11p10-| 
|--------------------------------------5-7----5-7---7/9----12p9--10p9------9-10-12------------| 
|---------------------5-7---5-7--5-7-8-----8----------------------------12--------------------| 
|--5/7--7----5--5-7-8-----8-------------------------------------------------------------------| 
|---------------------------------------------------------------------------------------------| 
 
ts t 
|-----------------10--12--10----10--12--13--12--10------10------------------------------------| 
|-----10---10/12-------------13---------------------13-----13--12--10-----/20p15p12-----------| 
|-12--------------------------------------------------------------------------------19p14p12--| 
|---------------------------------------------------------------------------------------------| 
|---------------------------------------------------------------------------------------------| 
|---------------------------------------------------------------------------------------------| 
 
 
|-------------------------------------------------------------------8-5--------10-8-5---------| 
|-------------------------------------------------------------8b10-------9-6------------9-8-6-| 
|---------------------------------------7---9~-----7------7-----------------------------------| 
|-/14---10h12------------------------7----------------10--------------------------------------| 
|--------------10~---8h10p8--7--7/8-----------------------------------------------------------| 
|---------------------------------------------------------------------------------------------| 
 
 
|---------------------------------------------------------------------------------------------| 
|-------------------------------------------------------------------------13---------------10-| 
|-10------10h12p10---------------------------------------------------10-------12b14---12b14---| 
|-----12------------12--10--------------------------------------/12---------------------------| 
|---------------------------12--10------------------------------------------------------------| 
|-----------------------------------13--10---13--13/15---15-----------------------------------| 
 
t  
|-------10--13b15---13-----------------------------------------10--13b15---18p13p12p10--| 
|-13b15-----------------------------13---------------10--13b15--------------------------| 
|-------------------------------10------12b14---12b14-----------------------------------| 
|--------------------------/12----------------------------------------------------------| 
|---------------------------------------------------------------------------------------| 
|---------------------------------------------------------------------------------------| 
 
t 
|-17p13p12p10---------------------------------------------------------------------------------| 
|---------------------------------------------------------------------------------------------| 
|------------------10--12--9--10-------9------------------------------------------------------| 
|---------------------------------12------10-----12--10---------------------------------------| 
|--------------------------------------------------------12--13--12--10/12--10--8---10/12--10-| 
|---------------------------------------------------------------------------------------------| 
 
 
|---------------------------------------------------------------------------------------------| 
|---x-----------6--6-------------12--12--12--12--12--12--12--10--10------7--7--7--7--7--8--8-| 
|---x-----------5--5--------------9---9---9---9---9---9---9---9--9-------4--4--4--4--4--5--5-| 
|---x----------------------------------------------------------------------------------------| 
|---x----------------------------------------------------------------------------------------| 
|---------------------------------------------------------------------------------------------| 
 
 
|------------------------------------------| 
|------------------------------------------| 
|-12--12--12--12--12--10--10---8--8--6--6--| 
|--9---9---9---9---9---9---9---------------| 
|------------------------------------------| 
|------------------------------------------| 
 
 
 
|----------------------------------------|--------------------------------------| 
|----------------------------------------|--------------------------------------| 
|----------------------------------------|--------------------------------------| 
|------10--------10----------12--14------|----12-~---10----12----14-------------| 
|--12-------12---------12----------------|-----------------------------12-------| 
|----------------------------------------|--------------------------------------| 
 
 
|----------------------------------------|--------------------------------------| 
|----------------------------------------|--------------------------------------| 
|----------------------------------------|--------------------------------------| 
|------10--------10----------12--14------|--------10-------10----14---12---14---| 
|--12-------12---------12----------------|----12-------12-----------------------| 
|----------------------------------------|--------------------------------------| 
 
Pm------------------------------------------ 
|----------------------------------------|---------------------------------------------| 
|------------------13p10--10-------------|-15/1715--13/1513--10/1310--8/108--7/95-| 
|------12---14---------------------------|---------------------------------------------| 
|--14------------------------------------|---------------------------------------------| 
|----------------------------------------|---------------------------------------------| 
|----------------------------------------|---------------------------------------------| 
 
Pm-- 
|--------------------------------------------------------------------------------------| 
|--------------------------------------------------------------------------------------| 
|--------------------------------------------------------------------------------------| 
|------12h14--12h14--12-14----14--15--14h15p14/12---12/14--12--------12/14--14--12--14-| 
|--12----------------------------------------------------------15----------------------| 
|--------------------------------------------------------------------------------------| 
 
 
|--------------------------------------------------------------------------------------| 
|--------------------------------------------------------------------------------------| 
|--10/12-------------------------------------------------------------------------------| 
|---------15--14h15p14/12---12/14---12h14--12h14--12--14----------------12---11--------| 
|--------------------------------------------------------------12-12-12---------12-----| 
|--------------------------------------------------------------------------------------| 
 
 
|--------------------------------------------------------------10b12-pb12r10--8--10b12-| 
|------10--8---------------------------------------------------------------------------| 
|------------9--7---------7------------------------------------------------------------| 
|------------------10--7----7---10---7------------------10-----------------------------| 
|---------------------------------------10---7---10/12---------------------------------| 
|--------------------------------------------------------------------------------------| 
 
 
|--------------------------------------------------------------------------------------| 
|--12~--10------10~--------------------------------------------------------------------| 
|-----------12--------12---9--------------------------10/12----------------------------| 
|---------------------------------12/14--14---12--14----------15--14h15p14/12---12/14--| 
|--------------------------------------------------------------------------------------| 
|--------------------------------------------------------------------------------------| 
 
 
|----------------------------------------------------------15---13---12----------------| 
|-------------------------------------------------------------------------15-----------| 
|--------------------------------------------------------------------------------------| 
|--12h14--12h14--12--14-----------------12---11----------------------------------------| 
|-----------------------------12-12-12----------12-------------------------------------| 
|--------------------------------------------------------------------------------------| 
 
 
|---------------------------------| 
|--12b13r12---10------------------| 
|-----------------12--12/14-------| 
|---------------------------------| 
|---------------------------------| 
|---------------------------------|
Compositor Joe Satriani
Colaboración y revision:
  • Ricardo Cerqueira
140 reproducciones
    • ½ Tom
    • A
    • Bb
    • B
    • C
    • Db
    • D
    • Eb
    • E
    • F
    • F#
    • G
    • Ab
  • Adicionar à lista

    0 comentarios

    Mostrar mais comentários

    ¿Conseguiste tocar?

    1 Tocaron 0 Ainda não

    Grave um vídeo tocando Until We Say Goodbye e mande pra gente!

    00:00 / 00:00
    outros vídeos desta música
    repetir qualidade Automático
    Outros vídeos desta música
    00:00 / 00:00
    Automático

    Cifra Club Pro

    Aproveite o Cifra Club com benefícios exclusivos e sem anúncios
    7 dias grátis
    Cifra Club Pro
    Aproveite o Cifra Club com benefícios exclusivos e sem anúncios
    7 dias grátis
    OK