Cifra Club

ZZ's Song

Joe Satriani

Cifrado: Principal (guitarra y guitarra eléctrica)
tono: D
  Frase 1 
E|-------------------------|------------------------| 
B|-------------------------|-----------7~~~-7~~~----| 
G|------------9~~~-8~~~----|-----------7~~~-6~~~----| 
D|--------11--9~~~-9~~~----|--------9---------------| 
A|-----9-------------------|-----7------------------| 
E|--7----------------------|--5---------------------| 
 
 
E|-------------------------|------------2~~---------| 
B|-------------------------|------------0~~---------| 
G|------------9~~~-8~~~----|---------4--4~~---------|  
D|--------11--9~~~-9~~~----|---------------------9--| 
A|-----9-------------------|-----5------------7-----| 
E|--7----------------------|--3------------5--------| 
 
 
E|-------------------------|------------------------| 
B|-------------------------|-----------7~~~-7~~~----| 
G|------------9~~~-8~~~----|-----------7~~~-6~~~----| 
D|--------11--9~~~-9~~~----|--------9---------------| 
A|-----9-------------------|-----7------------------| 
E|--7----------------------|--5---------------------| 
     
----------------------------------------------------------------------------- 
 
Frase 2                        let ring (1st time)  
E|------------2--5--7------------0------------------| 
B|------------0--0--0------------0------------------| 
G|---------4--4--4--4---------2---------------------|    
D|-------------------------2------------------------| (repeat from phrase 1  
A|-----5--------------------------------------------|  to here 1st time only)  
E|--3------------------2----------------------------|   
 
 
  Frase 2 (2nd time)   Frase 2 (3rd time)       Frase 2 (4th time) 
E|---------------|        ------------------|         ----------------------| 
B|---------------|        ------------------|         ----------------------| 
G|-----------2---|        ------------------|         ---------2--4---------| 
D|--------2------|        --------2/4\2/4---|         ---------------2--4---| 
A|--2--4---------|        --2--4------------|         --2--4----------------| 
E|---------------|        ------------------|         ----------------------| 
  repeat  Frase 2         repeat Frase 2             repeat Frase 2 
 
 
  Frase 2 (5th time) 
E|---------------| 
B|---------------| 
G|---------------| 
D|--------9------| 
A|-----7---------| 
E|--5------------| 
  go to phrase 3 
 
----------------------------------------------------------------------------- 
 
  Frase 3 (5x - fade out 5th time through) 
E|-------------------------|------------------------| 
B|-------------------------|-----------7~~~-7~~~----| 
G|------------9~~~-8~~~----|-----------7~~~-6~~~----| 
D|--------11--9~~~-9~~~----|--------9---------------| 
A|-----9-------------------|-----7------------------| 
E|--7----------------------|--5---------------------| 
 
                        
E|-------------------------|------------------------| 
B|-------------------------|------------------------| 
G|------------9~~~-8~~~----|------------------------|  
D|--------11--9~~~-9~~~----|------------------------| 
A|-----9-------------------|------------------------| 
E|--7----------------------|--7---------------------| 
                               let ring_____________
00:00 / 00:00
Otros videos de esta canción
Repetir
Otros videos de esta canción
Composición de Joe Satriani
Colaboración y revisión:
  • Tiago
65 vistas
    • ½ Tono
    • A
    • Bb
    • B
    • C
    • Db
    • D
    • Eb
    • E
    • F
    • F#
    • G
    • Ab
  • Agregar a la lista

    0 comentarios

    Ver todos los comentarios

    ¿Lograste tocar?

    0 Tocaron 0 Aún no

    ¡Graba un video tocando ZZ's Song y envíanoslo!

    00:00 / 00:00
    OK