Cifra Club

For My People

Joey Bada$$

Cifrado: Principal (guitarra y guitarra eléctrica)
Selo Cifra Club: esta cifra foi revisada para atender aos critérios oficiais da nossa Equipe de Qualidade.
tono: Bm
E|E|-----------------------------------------------------------------||
FOR MY PEOPLE - Joey Bada$$
E|E|-----------------------------------------------------------------||
Tabbed by: hiddenrevs

E|---------------------5/7-5-----5-------|
B|---------------------------5/7---5-----|
G|-7-4-7-4-7-4-7-4-7-4---------------3-7-| (repeated almost constantly throughout the song)
D|---------------------------------------|
A|---------------------------------------|
E|---------------------------------------|



Around halway through the song they switch to this version

E|-------------------------5/7-5-----5-------|
B|-------------------------------5/7---5-----|
G|-7-4-7-4-7/9-4-7/9-4-7-4---------------3-7-|
D|-------------------------------------------|
A|-------------------------------------------|
E|-------------------------------------------|
Otros videos de esta canción
    20 exhibiciones
      • ½ Tono
      • Am
      • Bbm
      • Bm
      • Cm
      • C#m
      • Dm
      • Ebm
      • Em
      • Fm
      • F#m
      • Gm
      • G#m
    • Agregar a la lista

    Afinación de cifrado

    Afinador online

      OK