Cifra Club

Carvel

John Frusciante

Cifrado: Principal (guitarra y guitarra eléctrica)
Selo Cifra Club: esta cifra foi revisada para atender aos critérios oficiais da nossa Equipe de Qualidade.
tono: D
[Intro] Bm  F#m  G
        Bm  F#m  G
        Bm  F#m  G
        Bm  F#m  G
               
       Bm      F#m        G      
When I try I force it out
       Bm         F#m     G   
Never looking in only out

  D        A         F#m      G     A
Now is the time for millions to lose
  D         A        F#m      G   A
Never the same since I lost you

  Bm       F#m         G   
Running me out of town
  Bm      F#m         G  
Wishing the best around 

  D        A     F#m   G   A
Would only get off my back
  D       A             F#m       G
Heaven receives you and throws you back

( G )

         A                G
Sending a dummy to my God    
 A                G
Sending a dummy to my God
         A                G
Sending a dummy to my God    
 A                F#m G
Sending a dummy to my God

( Bm  F#m  G )
( Bm  F#m  G )
( Bm  F#m  G )
( Bm  F#m  G )

 D         A      F#m   G   A
Driving to eat a carvel cake
 D             A        F#m      G      F#m
Somewhere you know isn't where you think
F#
Have you gone away 

( Bm  D  A  G )
( Bm  D  A  G )

[Solo]

E|-------------------------------------------------------------------|
B|-------------------------10-12-------------------------------------|
G|------9-11------9-11-9-----------------9-11------9-11-9-7--6-7-----|
D|-9-12------9-12-------12----------9-12------9-12-----------7-9-----|
A|-------------------------------------------------------------------|
E|-------------------------------------------------------------------|

   Bm            D              A       G
Have you gone, have you gone away already           
   Bm         D          A          G
Come back, come back, come back, come back

Bm            D              A       G
Have you gone, have you gone away already           
   Bm         D          A          G
Come back, come back, come back, come back

Bm            D              A       G
Have you gone, have you gone away already           
   Bm         D          A          G
Come back, come back, come back, come back

 Bm            D              A       G    Bm   A
Have you gone, have you gone away already
 F#m                    G
All the good times are on their way

( Bm  D  A  G )
( Bm  D  A  G )

[Solo]

E|-------------------------------------------------------------------|
B|-------------------------10-12-------------------------------------|
G|------9-11------9-11-9----------------9-11----9-11-9-7-------|
D|-9-12------9-12-------12--------9-12------9-12----------9^10^9-9---|
A|-------------------------------------------------------------------|
E|-------------------------------------------------------------------|

        Bm         D          A       G             
Up and down that's how energy stays alive   

( Bm  D  A  G )

   Bm         D          A       G              
Up and down that's how energy stays alive   
Bm       A       F#m              G
     And I wouldn't have it any other way

( D  A  Bm  G )
( D  A  Bm  G )
( D  A  Bm  G )
( D  A  D )
Otros videos de esta canción
    45.884 exhibiciones
      • ½ Tono
      • A
      • Bb
      • B
      • C
      • Db
      • D
      • Eb
      • E
      • F
      • F#
      • G
      • Ab
    • Agregar a la lista

    Afinación de cifrado

    Afinador online

      OK