Cifra Club

Ordinary People

John Legend

Tablatura: Principal (guitarra)
reproducciones 409
Tono: D

Hey All, This is my first tab, any help would be appreciated.
There's no good Tab for this song.


E-------------|----------------|-------------------|
B--5--3--0----|--------0-------|-------------------|
G------------2|--7--4----2-----|-------------------|
D-------------|------------2--4|-------------------|
A-------------|----------------|-------------------|
E-------------|----------------|-------------------|


Solo

E-------------|---------------|-----------------|----------------------|
B-5-5-3-5-3-5-|--5-5-3-5-7-7--|-4-4-2-4--4-4-2-4|---0--2---5/7--2--5---|
G-------------|---------------|-----------------|----------------------|
D-------------|---------------|-----------------|----------------------|
A-------------|---------------|-----------------|----------------------|
E-------------|--------------------------------------------------------|

E--------------|--------------|----------|--------------5-4-2-0-2-2-0-|
B-8-7--5-5-3-5-|--8-7-5-5--7-7|--7-7-5-7-|-7-7-5-7--9-5---------------|
G--------------|--------------|----------|----------------------------|
D--------------|--------------|----------|----------------------------|
A--------------|--------------|----------|----------------------------|
E--------------|--------------|----------|----------------------------|
Acordes para:

    0 comentarios

    mostrar más comentarios

    ¿Conseguiste tocar?

    0 tocaron 1 aún no

    ¡Graba un vídeo tocando Ordinary People y envianoslo!

    00:00 / 00:00
    outros vídeos desta música
    repetir qualidade Automático
    Outros vídeos desta música
    00:00 / 00:00
    Automático
    OK