Cifra Club

Stay With You

John Legend

Tablatura: Principal (guitarra)
reproducciones 89
Tono: A
Intro:                          Verse 1:
e---------2-5-|---------2-9--|-------------------|-------------------|------------------|
B---5h7p5-3-5-|---5h7p5-3-10-|-------------------|-----------------2-|---7--------------|
G-6-6h7p6-4-6-|-6-6h7p6-4-11-|---6-6-4-2-2---4-2-|---6-6-4-2-2-2-4-2-|-----6-4-2-2---4-2|
D-------------|-----------14-|-4-----2---2-4-4-2-|-4-----2---2---4-2-|-4-----2---2-4-4-2|
A-------------|--------------|---------------5-4-|---------------5---|---------------5-4|
E-------------|--------------|-------------------|-------------------|------------------|
        
             Verse 2:
e-----------|-----------------|-----------------|-------------------|-------------|
B-----------|-----------------|---------------2-|-7-----------------|-------------|
G---2-4-2-2-|-6-6-4-2-2---4-2-|-6-6-4-2-2-2-4-2-|---6-4-2-2-2-4---2-|---6-4-2-2-2-|
D-4---2-4-2-|-----2---2-4-4-2-|-----2---2---4-2-|-----2---2---2-4-2-|-4---6---4-2-|
A-----4-5-4-|-------------5-4-|-------------5---|-----------------4-|---------5-4-|
E-----------|-----------------|-----------------|-------------------|-------------|

Chorus:
e--------2-2---------------------|-------2-2---2-------------------|
B----2-5-3-3-5-5-----------------|---2-5-3-3-5---5-------------5---|
G--2-----2-2-6---6-6-6-4-2-2-2-6-|-2-----2-2-6-----6-6-4-2-2-2---6-|
D------------6-6---------4-4---7-|-----------6---6-------4-4---7---|
A------------------------5-5---4-|-----------------------5-5-------|
E--------------------------------|---------------------------------|

e-----------2-5-2-----------------|-------------------------------------|
B---------5-2-7---5---------------|-------------------------------------|
G---2-4-6---2-7-2---6p4-2-2-2-2-6-|---6-4-2---2-4h6-2-4-------2-4-2-2-2-|
D-------6-----7-----------------7-|---------6-4-------0-4-4-4---6---2-2-|
A-4---------------------4-4-----4-|-4-------4-------------5-----------4-|
E---------------------------------|-------------------------------------|

Interlude:                                    Verse 3:
e---------------------2-5-|-----------2-9--|-----------------|-----------------|
B-2---------2-5h7p5---3-5-|---5h7p5---3-10-|-----------------|---------------2-|
G---2h4p2---2-6h7p6-2-4-6-|-6-6h7p6-2-4-11-|-6-6-4-2-2---4-2-|-6-6-4-2-2-2-4-2-|
D---------4---------------|-------------14-|-----2---2-4-4-2-|-----2---2---4-2-|
A-------------------------|----------------|-------------5-4-|-------------5---|
E-------------------------|----------------|-----------------|-----------------|

                                    Chorus:
e-------------------|-------------|--------2-2---------------------|
B-7-----------------|-------------|----2-5-3-3-5-5-----------------|
G---6-4-2-2-2-4---2-|---6-4-2-2-2-|--2-----2-2-6---6-6-6-4-2-2-2-6-|
D-----2---2---2-4-2-|-4---6---4-2-|------------6-6---------4-4---7-|
A-----------------4-|---------5-4-|------------------------5-5---4-|
E-------------------|-------------|--------------------------------|

e-------2-2---2-------------------|-----------2-5-2-----------------|
B---2-5-3-3-5---5-------------5---|---------5-2-7---5---------------|
G-2-----2-2-6-----6-6p4-2-2-2---6-|---2-4-6---2-7-2---6-4-2-2-2-2-6-|
D-----------6---6-------4-4---7---|-------6-----7-----------------7-|
A-----------------------5-5-------|-4---------------------4-4-----4-|
E---------------------------------|---------------------------------|
                                         Bridge:
e-------------------------------------|---------------------------|
B-------------------------------------|-----5-5-7-5-3-3p2---------|
G---6-4-2---2-4h6-2-4-------2-4-2-2-2-|-4-----------2-----4p2---2-|
D---------6-4-------0-4-4-4---6---2-2-|-6-2---------4---------4-0-|
A-4-------4-------------5-----------4-|---------------------------|
E-------------------------------------|---------------------------|

e---4-----2---------------------------|-----------------------------4-5-7-|
B-7---5-5-3-3p2-2-5h7/2-----------4---|-----2-----------------2-----5-7-9-|
G-4-------2-----1-------4p2-2-4-4---2-|---4---4p2h4p2-------2---2h4-----9-|
D---------------------------4---4---4-|-4-4-----------4-4-4---------------|
A-------------------------------------|---5-------------5-----------------|
E-------------------------------------|-----------------------------------|

Verse 4:
e---------------------|-----------------|---2-----------------|---------------------|
B---------------------|---------------2-|-----5p2-------------|-----------2---------|
G---4-6-6-4-2-2-2-4-2-|-6-6-4-2-2-2-4-2-|-2-------4-2-2---4-2-|-2-------2---2---4-2-|
D-2-------2---2---4-2-|-----2---2---4-2-|---------2---2-4-4-2-|---4---4-------4-4-2-|
A-----------------5-4-|-------------5---|-----------------5-4-|-----4-----------5-4-|
E---------------------|-----------------|---------------------|---------------------|

Chorus:
e---------------|--------2-2---------------------|-------2-2---2-------------------|
B-------2-2/4-5-|----2-5-3-3-5-5-----------------|---2-5-3-3-5---5-------------5---|
G---2h4---------|--2-----2-2-6---6-6-6-4-2-2-2-6-|-2-----2-2-6-----6-6-4-2-2-2---6-|
D-2-------------|------------6-6---------4-4---7-|-----------6---6-------4-4---7---|
A---------------|------------------------5-5---4-|-----------------------5-5-------|
E---------------|--------------------------------|---------------------------------|

e-----------2-5-2-----------------|-------------------------------------|
B---------5-2-7---5---------------|-------------------------------------|
G---2-4-6---2-7-2---6p4-2-2-2-2-6-|---6-4-2---2-4h6-2-4-------2-4-2-2-2-|
D-------6-----7-----------------7-|---------6-4-------0-4-4-4---2---2-2-|
A-4---------------------4-4-----4-|-4-------4-------------5-----------4-|
E---------------------------------|-------------------------------------|

Ending:
e -------2---------------------------------|-------------------------------------|
B ---2/5-2-5-5/7---------------2-----------|-2-------------------2---2-----------|
G -2-----2-------4-2-2-2-----2---2-----2-2-|---4-2-2-2-2-4-2-------4---2-----2-2-|
D ---------------4---4---4-4---2---4p2---2-|---6---------0---4-4-----2---4p2---2-|
A ---------------5---5-------------------4-|-------2-----------4---------------4-|
E -----------------------------------------|-------------------------------------|

e -------------------2-5-|---------2-9--||
B -2/5---------5h7p5-3-5-|---5h7p5-3-10-||
G -----4p2-6-4-6h7p6-4-6-|-6-6h7p6-4-11-||
D ---------4-------------|-----------14-||
A -----------------------|--------------||
E -----------------------|--------------||
Acordes para:

    0 comentarios

    mostrar más comentarios

    ¿Conseguiste tocar?

    0 tocaron 1 aún no

    ¡Graba un vídeo tocando Stay With You y envianoslo!

    00:00 / 00:00
    outros vídeos desta música
    repetir qualidade Automático
    Outros vídeos desta música
    00:00 / 00:00
    Automático
    OK