Cifra Club

Heart Bleeds

John Mark McMillan

Cifrado: Principal (guitarra y guitarra eléctrica)
tono: F (con acordes en la forma de C) Capotraste en 5ª casa
Intro:  C  F  G

C                Dm           F               C
We could be revelling forever in the love You bring
C                      Dm         F            C
and we could be wasted on You and not count it loss

     Dm                  F               G
Like fools in love we're bound to make a scene

C
Our hearts bleed for You, oh
G
Our hearts bleed for You whoa-oh-oh-oh
F                 G                    F    G
Our hearts bleed, our hearts bleed for You

Verso 2
We could burn down the days inside the light of Your face
We could throw the years away and not regret the price we pay

C
Our hearts bleed for You, oh
G
Our hearts bleed for You whoa-oh-oh-oh
F                 G                    C
Our hearts bleed, our hearts bleed for You

Am             F                  C     G/B
You have loved alive the dead and gone
Am                 F                    Em   G
Filled our thirsty veins with blood and song

Intro/Solo
E|-----------8---------------------------------------------------------|
B|--10~~~-10---8------8-10-8--------8-10-8----8---8-10-8---------------|
G|---------------------------10-7----------10------------10-10~~~------|
D|---------------------------------------------------------------------|
A|---------------------------------------------------------------------|
E|---------------------------------------------------------------------|

Refrão 2
E|--------13-----------------------------------------------------------|
B|--13~~~----13
G|---------------------9-10-9-7-3~~~----5~~----------------------------|
D|-----------------------------------3-5~~~-5
A|---------------------------------------------------------------------|
E|---------------------------------------------------3-5-3-1-3h5-3-1---|
00:00 / 00:00
Otros videos de esta canción
Repetir
Otros videos de esta canción
Composición de John Mark McMillan
Colaboración y revisión:
  • Vanessa Catarine
13 vistas
    • ½ Tono
    • A
    • Bb
    • B
    • C
    • Db
    • D
    • Eb
    • E
    • F
    • F#
    • G
    • Ab
  • Agregar a la lista

    0 comentarios

    Ver todos los comentarios

    ¿Lograste tocar?

    0 Tocaron 0 Aún no

    ¡Graba un video tocando Heart Bleeds y envíanoslo!

    00:00 / 00:00
    OK