Cifra Club

Bold As Love

John Mayer

Cifrado: Principal (guitarra y guitarra eléctrica)
Acompaña nuestras novedades de Cifra Club en español.
¡Sigue nuestro perfil en Instagram!
tono: A
Verso:
    A            E     F#m             D          A         E            F#m    D
E|--5/---x-------0--|--2-----------------------|-----5---5--0---------|----------------|
B|--5/---x-------0--|--2-----------------------|-----5h7-5--0---------|----------------|
G|--6/---x-------1--|--2--2h4p2----------7---7-|------------1--1h2p1--|----2----7------|
D|--7/---x-------2--|--4--------2h4------7h9-7-|------------2---------|----2h4--7---7--|
A|--x/---x-------2--|--4-------------x-5-------|------------2---------|---------5-4-4--|
E|--5/---x--14\--0--|--2-----------------------|--/5--------0---------|-/2-------------|

Pré-Refrão:
    D    A          Bm       G                 D       A       Bm     G
E|---------------|--------------------------|---------------|---------5-------|
B|--7----2h3-2---|--7-----------------------|----------5----|--7--------3--4--|
G|--7-7--2---2---|--7---7----2h4p2--2-2-----|--7-------6h7--|--7---7----4--5--|
D|--7-7----------|--7h9-7---------4-2-4-2---|--7------------|--7h9-7-------6--|
A|--5------------|--------------------------|--5------------|-----------------|
E|---------------|--------------------------|---------------|-----------------|
    'Blue…’

Refrão:
    A        E       F#m    G                     A       E         D/F#
E|--x--x-------0--|-----2------------5--5--5--|---x--x-------0--|---------x--x--x------|
B|--5--5-------0--|-----2---3--3--3--3--3--3--|--/5--5-------0--|--------10-10-10\-----|
G|--6--6-------1--|-----2---4--4--4--4--4--4--|--/6--6-------1--|---x-----7--7--7\-----|
D|--7--7----2--2--|--4--4---5--5--5--5--5--5--|--/7--7----2--2--|---7-----7--7--7\-----|
A|--0--0----2--2--|--4--4---------------------|---0--0----2--2--|---9-----9--9--9\-----|
E|----------0--0--|--2--2---------------------|-----------0--0--|----------------------|
      'But they’re…’

    A        E        F#m         D/F#
E|---x--x----------|--2-------|-----------------------|
B|--/5--5----9-9---|--2-------|------x-10-------------|
G|--/6--6----9-9---|--2-------|------x--7-------------|
D|--/7--7----9-9---|--4-------|------x--7-------------|
A|---0--0----7-7---|--4-------|--/9--x--9-------------|
E|-----------------|--2-------|-----------------------|
                                         'The axis…’
Pós-Refrão:
    A         Bm                        D                 G
E|----------------------------------|---------------------3-5p3-5p3-5p3--|
B|-----5--5---7h10p7--7-7-----------|---------------------3--------------|
G|-----7--6-----------9-7-----------|-------------7-7-----4--------------|
D|-----7--7-----------9-9--9-7------|-------------7-7-----5--------------|
A|-----0--0--------------------9-7--|----------7--9-9-9\-----------------|
E|--/5------------------------------|--/5--7/9---------------------------|

Verso:
    A          E        F#m       D           A       E       F#m      D
E|--------------------|--------------------|---------------|-----------------|
B|--5---5-5-----------|-----------x-x-x-x--|--5-5-5--------|-----------------|
G|--6---7-6-----------|--2h4-2----7-5-7-5--|--6-6-6--------|--2h4------7-----|
D|--7---7-7---/14-14--|--2---2h4--7-5-7-5--|--7-7-7---14\--|------4----7--7--|
A|------------/14-14--|-----------5-5-5-5--|----------14\--|-----------5--4--|
E|------------/12-12--|--------------------|----------12\--|-----------------|

Pré-Refrão:
    D    A         Bm      G            D    A         Bm        G
E|--------------|-------------------|---------------|-------------------------|
B|-------5------|----------2--------|--------5------|------------3-3-3/4-4-4--|
G|-------6h7p6--|--7h9-7---2h4p2----|--------6h7p6--|--7h9p7-7---4-4-4/5-5-5--|
D|--12\--7------|--7---7---------5--|--/12---7------|--7-----7---5-5-5/6-6-6--|
A|--12\---------|-------------------|--/12----------|-------------------------|
E|--10\---------|-------------------|--/10----------|-------------------------|

Refrão:
    A        E       F#m    G                  A       E          D/F#
E|--x--x----------|-----2---3-5p3-5p3-5p3--|---x--x-----------|-----------x--x--x------|
B|--5--5-------9--|-----2---3-3---3---3----|--/5--5-------9---|----------10-10-10\-----|
G|--6--6-------9--|-----2---4-4---4---4----|--/6--6-------9---|---x-x-----7--7--7\-----|
D|--7--7-----9-9--|--4--4---5-5---5---5----|--/7--7----9--9---|---7-7-----7--7--7\-----|
A|--0--0-----7-7--|--4--4------------------|---0--0----7--7/--|--\9-9-----9--9--9\-----|
E|----------------|--2--2------------------|------------------|------------------------|
      'But they’re…’

    A        E        F#m         D/F#
E|---x--x----------|--2-------|-----------------------|
B|--/5--5----9-9---|--2-------|------x-10-------------|
G|--/6--6----9-9---|--2-------|------x--7-------------|
D|--/7--7----9-9---|--4-------|------x--7-------------|
A|---0--0----7-7---|--4-------|--/9--x--9-------------|
E|-----------------|--2-------|----------/\-----------|
                                         'The axis…’
Composición de Jimi Hendrix
Colaboración y revisión:
  • Emerson Costa
  • Tiago Vieira
692 vistas
    • ½ Tono
    • A
    • Bb
    • B
    • C
    • Db
    • D
    • Eb
    • E
    • F
    • F#
    • G
    • Ab
  • Agregar a la lista

    0 comentarios

    Ver todos los comentarios

    ¿Lograste tocar?

    1 Tocaron 0 Aún no

    ¡Graba un video tocando Bold As Love y envíanoslo!

    00:00 / 00:00
    Outros vídeos desta música
    Repetir Calidad Automático
    Outros vídeos desta música
    00:00 / 00:00
    Automático
    OK