Cifra Club

Gravity

John Mayer

Tablatura: Principal (guitarra)
tono: G
[Intro] G  G  C6(9)  C6(9)

[Refrão]

  G                  C6(9)
Gravity is working against me
G                              C6(9)
And gravity wants to bring me down

[Ponte]

         Am7
Oh I'll never know what makes this man
     D7
With all the love that his heart can stand
  Gm/Bb             Ebmaj7      D7
Dream of ways to throw it all away

[Refrão]

  G                  C6(9)
Gravity is working against me
G                              C6(9)
And gravity wants to bring me down

[Ponte]

     Am7
Oh twice as much ain’t twice as good
     D7
And can't sustain like one half could
      Gm/Bb
It's wanting more
              Ebmaj7         D7
That's gonna send me to my knees

[Solo] G  G  C6(9)  C6/9 
       G  G  C6(9)  C6/9 

E|------------------------------------------------------|
B|-10h12-12/15-12-10-12~--------------------------------|
G|------------------------------------------------------|
D|------------------------------------------------------|
A|------------------------------------------------------|
E|------------------------------------------------------|

E|------------------------------------------------------|
B|-10h12-12/17-15-12-10-12/8----------------------------|
G|------------------------------------------------------|
D|------------------------------------------------------|
A|------------------------------------------------------|
E|------------------------------------------------------|

E|------19-----17---------19-17----17-------------------|
B|-15-17--17-15------15-17----15-17---------------------|
G|------------------------------------------------------|
D|------------------------------------------------------|
A|------------------------------------------------------|
E|------------------------------------------------------|

E|------19b21r19b21------------------------17/19--------|
B|-15-17-----------20-----------------15h17-----15/10-10|
G|-------------------19b21r19b21r19-17------------------|
D|------------------------------------------------------|
A|------------------------------------------------------|
E|------------------------------------------------------|

[Ponte]

     Am7
Oh twice as much ain’t twice as good
     D7
And can't sustain like one half could
      Gm/Bb
It's wanting more
              Ebmaj7         D7
That's gonna send me to my knees

[Final]

     G              
Oh gravity, stay the 
       C6(9)
Hell away from me
     G                    
Oh gravity has taken better 
 C6(9)
Men than me - how can that be?
                        G
Just keep me where the light is
                        C6(9)
Just keep me where the light is
                       G
Keep you me where the light is
                           C6(9)
Come on keep me where the light is
Composição de John Mayer
13.129 reproducciones
  • Simplificar cifra
    • ½ Tono
    • A
    • Bb
    • B
    • C
    • Db
    • D
    • Eb
    • E
    • F
    • F#
    • G
    • Ab
  • Adicionar à lista

    0 comentarios

    Ver todos os comentários

    ¿Conseguiste tocar?

    31 Tocaram 9 Ainda não

    Grave um vídeo tocando Gravity e nos envie!

    00:00 / 00:00
    outros vídeos desta música
    repetir qualidade Automático
    Outros vídeos desta música
    00:00 / 00:00
    Automático
    OK