Cifra Club

Message In a Bottle

John Mayer

Cifrado: Principal (guitarra y guitarra eléctrica)
tono: F#
Part 1

Intro/Verse

e--------------------------------
b--------------------------------
g-------8-----4-------6----------
d-------6-----2-------4---6--6---
a---0-4-----0-----0-2-----4--4---
e-------------------------2--2---

Part 2

"I'll send an SOS to the world"

e-------0------------------0-------0-------0---
b--(0)--3---0----------0---3---0---3---0---3---
g---2---2---1----------2---2---2---2---2---2---
d---2---0---4---(x2)---2---0---2---0---2---0---
a---0-------2----------x-------x-------x-------
e-----------0----------2-------2-------2-------


Part 3

"Message in the bottle"

e-----------------------------
b---5-----(5p4)---------------
g---4-----(4)---------4---4---
d---6-----(6p4)-----2-----2---
a---4--(4)--------0-------x---
e-------------------------4---


Part 4

e--------0----2---0---
b-------0-----0---0---
g------3------3---3---
d-----2-------2---2---
a----x--------x---x---
e---2---------2---2---

or

e--------4---
b-------0----
g------2-----
d-----4------
a----x-------
e---2--------

Part 5

e------------------------------------------
b------------------------------------------
g-------8------4------6--------------------
d-----6------2------4--------6---(etc..)---
a---4------0------2--------4---------------
e------------------------2-----------------


Part 6

e---------------4---
b---------------0---
g---8---4---4---2---
d---6---2---4---4---
a---4---0---2---x---
e---------------2---
00:00 / 00:00
Otros videos de esta canción
Repetir
Otros videos de esta canción
Composición de Sting
Colaboración y revisión:
  • Alex Kitamura
380 vistas
    • ½ Tono
    • A
    • Bb
    • B
    • C
    • Db
    • D
    • Eb
    • E
    • F
    • F#
    • G
    • Ab
  • Agregar a la lista

    0 comentarios

    Ver todos los comentarios

    ¿Lograste tocar?

    1 Tocaron 0 Aún no

    ¡Graba un video tocando Message In a Bottle y envíanoslo!

    00:00 / 00:00
    OK