Cifra Club

New Light

John Mayer

Cifrado: Completa (guitarra y guitarra eléctrica)
Acompaña nuestras novedades de Cifra Club en español.
¡Sigue nuestro perfil en Instagram!
tono: G
[Intro]

   Am7                              D
E|5-5-5-5-5------------------------5-5-5-5-5----------------------------------|
B|5-5-5-5-5------------------------7-7-7-7-7----------------------------------|
G|5-5-5-5-5------------------------7-7-7-7-7----------------------------------|
D|7-7-7-7-7------------------------7-7-7-7-7----------------------------------|
A|5-5-5-5-5------------------------5-5-5-5-5----------------------------------|
E|5-5-5-5-5-------------------------------------------------------------------|
   G                                C                                       Bm7
E|3-3-3-3-3------------------------3-3-3-3-3--------------------------------2-|
B|3-3-3-3-3------------------------5-5-5-5-5--------------------------------3-|
G|4-4-4-4-4------------------------5-5-5-5-5--------------------------------2-|
D|5-5-5-5-5------------------------5-5-5-5-5--------------------------------5-|
A|5-5-5-5-5------------------------3-3-3-3-3--------------------------------2-|
E|3-3-3-3-3-------------------------------------------------------------------|

  P.M. . . . . . . . . . . . . . . . . . . . . . . . . . .
E|---------------------------------------------------------|
B|---------------------------------------------------------|
G|---------------------------------------------------------|
D|-5-4-----5-4-----5-4-----5-4-----5-4-----5-4-----5-4-----|
A|-----7-5-----7-5-----7-5-----7-5-----7-5-----7-5-----7-5-|
E|---------------------------------------------------------|

[Refrão]

E|---------------------------------------------------------------------|
B|---------------------------------------------------------------------|
G|---------------------------------------------------------------------|
D|-5-7-7-7-x-5-7----5-7-7-7-x-5-7----4-5-5-5-x-4-5----4-5-5-5-x-4-5----|
A|---------------------------------------------------------------------|
E|---------------------------------------------------------------------|

( Em )

   Dsus4                            A
E|10-x-10-x-10-x-10-x-10-----------10-x-10-x-10-x-10-x-10----------------------|
B|10-x-10-x-10-x-10-x-10-----------12-x-12-x-12-x-12-x-12----------------------|
G|12-x-12-x-12-x-12-x-12-----------12-x-12-x-12-x-12-x-12----------------------|
D|12-x-12-x-12-x-12-x-12-----------12-x-12-x-12-x-12-x-12----------------------|
A|10-x-10-x-10-x-10-x-10-----------10-x-10-x-10-x-10-x-10----------------------|
E|-----------------------------------------------------------------------------|

[Solo]

E|--------------------------------------------------------------------------------------|
B|---12-13~--------12b13r(12)~------------------12-13~----------------------------------|
G|14-------------------------14b15r(14)-12~--14-------------------14b15r(14)-12-14b16---|
D|----------14-16~-------------------------------------12h14-12~------------------------|
A|--------------------------------------------------------------------------------------|
E|--------------------------------------------------------------------------------------|

[Refrão]

E|---------------------------------------------------------------------|
B|---------------------------------------------------------------------|
G|---------------------------------------------------------------------|
D|-5-7-7-7-x-5-7----5-7-7-7-x-5-7----4-5-5-5-x-4-5----4-5-5-5-x-4-5----|
A|---------------------------------------------------------------------|
E|---------------------------------------------------------------------|
Composición de John Mayer / No ID
Colaboración y revisión:
  • Victor Pinheiro
100 vistas
  • Simplificar cifrado
    • ½ Tono
    • A
    • Bb
    • B
    • C
    • Db
    • D
    • Eb
    • E
    • F
    • F#
    • G
    • Ab
  • Agregar a la lista

    0 comentarios

    Ver todos los comentarios

    ¿Lograste tocar?

    0 Tocaron 0 Aún no

    ¡Graba un video tocando New Light y envíanoslo!

    00:00 / 00:00
    Outros vídeos desta música
    Repetir Calidad Automático
    Outros vídeos desta música
    00:00 / 00:00
    Automático
    OK