Cifra Club

Victoria

John Mayer

Cifrado: Principal (guitarra y guitarra eléctrica)
Selo Cifra Club: esta cifra foi revisada para atender aos critérios oficiais da nossa Equipe de Qualidade.
tono: G
[Intro]

E|-------0----------------------------------------|
B|-------1---------3-------------------1-------1--|
G|-----------------2-------0---------0-------0----|
D|---2---------0---------0---0h2---2-------0------|
A|-0---0-------------------------3-------2--------|
E|---------3-2---2---2-3--------------------------|

E|-------0---------------------------|
B|-------1---------3---------3-----3-|
G|-----------------2-------0-----0---|
D|---2---------0---------4-----4-----|
A|-0---0-----------------------------|
E|---------3-2---2---2-3-------------|

Am         D/F#   G         C9 G/B
 Don't know why Victoria came by
Am      D/F#          G           C G/B
 I could see by the look in her eyes
Am            D/F#                G          C9   G/B
 Victoria'd been driving around the town for awhile
Am                D/F#         C
 Playing with the thought of leaving

Am         D/F#   G           C     G/B
 Don't know why Victoria just smiled
Am         D/F#             G             C9  G/B
 Mentioned something 'bout how you were right
Am            D/F#       G                             C   G/B
 Must have been hard to see through the tears she was hiding
            Em               B9      C9
She said "I might not be seeing him soon
         Em                     B9      C9
I got a few things I've been waiting to do"

  D/A     F#   G            D/F#  G            D/F#    A4  A
He|--------y, Victoria came by,  Victoria came by tonight
  D/A   F#     G            D/F# G           D/F#    A4  A
He|--------y, Victoria came by, she says to say goodbye

Am       D/F#            G           C9 G/B
 Looked outside at the car in the drive
Am        D/F#               G        C G/B
 And the suitcase on the backseat inside
Am        D/F#             G        C9          C
 Sure it's so, she can't look out behind at the road
           Em             B9        C9
She said "I might not be seein him soon
            Em                   B9        C9
I've got a few things I've been waiting to do"

  D/A     F#   G            D/F# G             D/F#   A4 A
He|--------y, Victoria came by, Victoria came by tonight
  D/A    F#   G              D/F# G          D/F#   Asus A
He|--------y, Victoria came by, she says to say goodbye

E|-------------------------------|
B|--3h5-5-5-5-5-3h5-3-----3------|
G|-------------------------------| (2x)
D|--------------------4-5---2-0--|
A|-------------------------------|
E|-------------------------------|

E|----------------------------------|
B|--3h5-5-5-5-5-5h7-----------------|
G|------------------7h9-----4h5-----|
D|----------------------7-5---------|
A|----------------------------------|
E|----------------------------------|

Am         D/F#    G           C9  G/B
 Don't look down, she seemed alright
Am              D/F#             G       C   G/B
 You might be asking where is Victoria tonight
Am         D/F#        G
 Somewhere out on the highway
     C                Am
I'm sure that she's fine
Otros videos de esta canción
    713 exhibiciones
      • ½ Tono
      • A
      • Bb
      • B
      • C
      • Db
      • D
      • Eb
      • E
      • F
      • F#
      • G
      • Ab
    • Agregar a la lista

    Afinação da cifra

    Afinador online

      Ops (: Contenido disponible solo en portugués.
      OK