Cifra Club

Who Says

John Mayer

Cifrado: Principal (guitarra y guitarra eléctrica)
Acompaña nuestras novedades de Cifra Club en español.
¡Sigue nuestro perfil en Instagram!
tono: D
[Primeira Parte]

Parte 1 De 6
   D2           G    D/F#   Em7         
E|-----0------------------------------------|
B|-3---------3--3----3------3---3-----------|
G|---2-----2-x----0----2------0-------0-----|
D|-0-x---0--------x----x------x-----2-x-----|
A|------------------------------------------|
E|--------------3----2------0-----0---------|

Parte 2 De 6
   A    Bb°   Bm              E             
E|--------------------------------0---------|
B|-2----2-----2h3---3-----------0-------0---|
G|---2----0-------4-------4---1-x-----1-x---|
D|---x----x-------x-----4-x-----------------|
A|-0----1-----2-------2---------------------|
E|----------------------------0-----0-------|

Parte 3 De 6
   G    A     D2         
E|----------------0--------------0----------|
B|-3----2-----3---------3----3---------3----|
G|---0----2-----2-----2-x------2-----2-x----|
D|---x----x---0-x---0--------0-x---0--------|
A|------0-----------------------------------|
E|-3----------------------------------------|

Parte 4 De 6
   D2           G    D/F#   Em7         
E|-----0------------------------------------|
B|-3---------3--3----3------3---3-----------|
G|---2-----2-x----0----2------0-------0-----|
D|-0-x---0--------x----x------x-----2-x-----|
A|------------------------------------------|
E|--------------3----2------0-----0---------|

Parte 5 De 6
   A    Bb°   Bm              E             
E|------------------2-------------0---------|
B|-2----2-----2h3---------3-----0-------0---|
G|---2----0-------4-----4-x---1-x-----1-x---|
D|---x----x-------x-------------------------|
A|-0----1-----2-------2---------------------|
E|----------------------------0-----0-------|

Parte 6 De 6
   G    A     D2         
E|----------------0-------------------------|
B|-3----2-----3---------3----3---3-----3----|
G|---0----2-----2-----2-x------2-----2-x----|
D|---x----x---0-x---0--------0-x---0--------|
A|------0-----------------------------------|
E|-3----------------------------------------|

D2            G          D/F#
  Who says I can't get stoned?
 Em7                         A    Bb°
Turn off the lights and the telephone
Bm            E
   Me, in my house alone
  G         A          D2
Who says I can't get stoned?

D2            G         D/F#
  Who says I can't be free?
     Em7        
From all of the things
       A        Bb°
That I used to be
Bm              E
   Re-write my history
  G         A         D2
Who says I can't be free?

[Refrão]

Parte 1 De 7
   G              D/F#
E|------------------------------------------|
B|-3-------3------3-------3-----------------|
G|---0-0-----0------2-2-----2---------------|
D|---x-------x------x-------x---------------|
A|------------------------------------------|
E|-3-----3--------2-----2-------------------|

Parte 2 De 7
   A
E|------------------------------------------|
B|-2-------3---2-----------2----------------|
G|---2-2-----2-----4p2-------2--------------|
D|---x-------x-------x-2-----x--------------|
A|-0-----0-------0-------0------------------|
E|------------------------------------------|

Parte 3 De 7
   G              D/F#
E|------------------------------------------|
B|-3-------3------3-------3-----------------|
G|---0-0-----0------2-2-----2---------------|
D|---x-------x------x-------x---------------|
A|------------------------------------------|
E|-3-----3--------2-----2-------------------|

 Parte 4 De 7
   A
E|------------------------------------------|
B|-2-------3p2---------2---3----------------|
G|---2-2-----2-4p2---2-------2--------------|
D|---x-------x-----2-x-------x--------------|
A|-0-----0-------0-------0------------------|
E|------------------------------------------|

Parte 5 De 7
   G              D/F#
E|------------------------------------------|
B|-3-------3------3-------3-----------------|
G|---0-0-----2------2-2-----2---------------|
D|---x-------x------x-------x---------------|
A|------------------------------------------|
E|-3-----3--------2-----2-------------------|

Parte 6 De 7
   Bb°          Bm
E|--------------------2---------------------|
B|-2---2--------2h3---------3---------------|
G|---0-------0------4-----4-x---------------|
D|---x-----2-x------x-----------------------|
A|-1-----1------2-------2-------------------|
E|------------------------------------------|

Parte 7 De 7
  Em7                           A        A4
E|---------------------------------------0--|
B|-----3-------3-------3--------2---3----3--|
G|-0-0-------0-------0-------0----2---2--2--|
D|---x-----2-x-----2-x-----2-x----x---x--2--|
A|------------------------------0---0----0--|
E|-0-----0-------0-------0------------------|

             G    D/F#
It's been a long night 
             A
In New York city
             G    D/F#
It's been a long night 
          A
In Baton Rouge
G            D/F#
  I don't remember 
     Bb°           Bm
You looking any better
      Em7                        A  A4
But then again I don't remember you

[Segunda Parte]

Parte 1 De 6
   D2           G    D/F#   Em7         
E|-----0------------------------------------|
B|-3---------3--3----3------3---3-----------|
G|---2-----2-x----0----2------0-------0-----|
D|-0-x---0--------x----x------x-----2-x-----|
A|------------------------------------------|
E|--------------3----2------0-----0---------|

Parte 2 De 6 
   A    Bb°   Bm              E             
E|------------------2-------------0---------|
B|-2----2-----2h3---------3-----0-------0---|
G|---2----0-------4-----4-x---1-x-----1-x---|
D|---x----x-------x-------------------------|
A|-0----1-----2-------2---------------------|
E|----------------------------0-----0-------|

Parte 3 De 6
   G    A     D2        
E|----------------0-------------------------|
B|-3----2-----3---------3----3---3-----3----|
G|---0----2-----2-----2-x------2-----2-x----|
D|---x----x---0-x---0--------0-x---0--------|
A|------0-----------------------------------|
E|-3----------------------------------------|

Parte 4 De 6  
   D              G    D/F#   Em7         
E|-0h2---2--------3----2------0-------------|
B|-------------3----3----3--------3---------|
G|-----2-----2-x----x----x------0-----0-0---|
D|-0---x---0--------------------x-------x---|
A|------------------------------------------|
E|----------------3----2------0-----0-------|

Parte 5 De 6
   A    Bb°   Bm              E             
E|------------------2-------------0---------|
B|-2----2-----2h3---------3-----0-------0---|
G|---2----0-------4-----4-x---1-x-----1-x---|
D|---x----x-------x-------------------------|
A|-0----1-----2-------2---------------------|
E|----------------------------0-----0-------|

Parte 6 De 6
   G    A     D2         
E|----------------0-------------------------|
B|-3----2-----3---------3----3---3-----3----|
G|---0----2-----2-----2-x------2-----2-x----|
D|---x----x---0-x---0--------0-x---0--------|
A|------0-----------------------------------|
E|-3----------------------------------------|

D2            G
  Who says I can't get stoned?
 Em7                  A
Call up a girl that I used to know
Bm                   E
   Fake love for an hour or so
  G         A          D2
Who says I can't get stoned?

D             G          D/F#
  Who says I can't take time?
 Em7                       A      Bb°
Meet all the girls on the county line
 Bm              E
Wait on fate to send a sign
  G         A          D2
Who says I can't take time?

[Segundo Refrão]

Parte 1 De 8
   G              D/F#
E|------------------------------------------|
B|-3-------3------3-------3-----------------|
G|---0-0-----0------2-2-----2---------------|
D|---x-------x------x-------x---------------|
A|------------------------------------------|
E|-3-----3--------2-----2-------------------|

Parte 2 De 8
   A
E|------------------------------------------|
B|-2-------3p2---------3p2---2--------------|
G|---2-2-----2-4p2---2-------x--------------|
D|---x-------x-----2-x-----2----------------|
A|-0-----0-------0-------0------------------|
E|------------------------------------------|

Parte 3 De 8
   G              D/F#
E|------------------------------------------|
B|-3-------3------3-------3-----------------|
G|---0-0-----0------2-2-----2---------------|
D|---x-------x------x-------x---------------|
A|------------------------------------------|
E|-3-----3--------2-----2-------------------|

Parte 4 De 8
   A
E|------------------------------------------|
B|-2-------3p2---------------2--------------|
G|---2-2-----2-4p2-----2-----x--------------|
D|---x-------x-----2-5---5\4---2------------|
A|-0-----0-------0---x---0------------------|
E|------------------------------------------|

Parte 5 De 8
   G              D/F#
E|------------------------------------------|
B|-----3----------3-------3-----------------|
G|---0-------0------2-2-----2---------------|
D|-0-x-----0-x------x-------x---------------|
A|------------------------------------------|
E|-3-----3--------2-----2-------------------|

Parte 6 De 8
   Bb°          Bm
E|--------------------2---------------------|
B|-2---2--------2h3---------3---------------|
G|---0-------0------4-----4-x---------------|
D|---x-----2-x------x-----------------------|
A|-1-----1------2-------2-------------------|
E|------------------------------------------|

Parte 7 De 8 
  Em7                           
E|-------------2---0------------------------|
B|-----3---------------3--------------------|
G|-0-0-------0-------0-------0--------------|
D|---x-----2-x-------x-----2-x--------------|
A|------------------------------------------|
E|-0-----0-------0-------0------------------|

Parte 8 De 8
   A   A4
E|---------0--------------------------------|
B|-2---3-----------3------------------------|
G|---2---2-------2-----2--------------------|
D|---x---x-----2-x---2-x--------------------|
A|-0---0-----0------------------------------|
E|------------------------------------------|

             G    D/F#
It's been a long night 
             A
In New York city
             G    D/F#            A
It's been a long night in Austin too
G            D/F#
  I don't remember 
     Bb°            Bm
You looking any better
      Em7                        A  A4
But then again I don't remember you

( G  A4  A  D2 )
( G  D/F#  A )  
( G  D/F#  A )
( G  D/F#  Bb°  Bm  Em7  A  A4 )

Parte 1 De 9 
   G              A4  A
E|------------------------------------------|
B|-0h3---3--------3---2---------------------|
G|-----0-------0----2---2-------------------|
D|-----x-----0-x----x---x-------------------|
A|----------------0---0---------------------|
E|-3-------3--------------------------------|

Parte 2 De 9
   D2
E|-----0-------0----------------------------|
B|-3---------3-----3------------------------|
G|---2-----2-x---2-----2-2------------------|
D|-0-x---0-----0-x---0---x------------------|
A|------------------------------------------|
E|------------------------------------------|

Parte 3 De 9
   G              D/F#
E|------------------------------------------|
B|-3-------3------3-------3-----------------|
G|---0-0-----0------2-2-----2---------------|
D|---x-------x------x-------x---------------|
A|------------------------------------------|
E|-3-----3--------2-----2-------------------|

Parte 4 De 9
   A
E|------------------------------------------|
B|-2-------3---2-----------3----------------|
G|---2-2-----2-----4p2-------2--------------|
D|---x-------x-------x-2-----x--------------|
A|-0-----0-------0-------0------------------|
E|------------------------------------------|

Parte 5 De 9
   G              D/F#
E|------------------------------------------|
B|-3-------3------3-------3-----------------|
G|---0-0-----0------2-2-----2---------------|
D|---x-------x------x-------x---------------|
A|------------------------------------------|
E|-3-----3--------2-----2-------------------|

Parte 6 De 9
  A
E|------------------------------------------|
B|-2-------3p2-----2------------------------|
G|---2-2-----2-2h4---4-4p2------------------|
D|---x-------x-------x-----2h4--------------|
A|-0-----0-------0-------0---x--------------|
E|------------------------------------------|

Parte 7 De 9
  G              D/F#
E|------------------------------------------|
B|-3-------3------3-------3-----------------|
G|---0-0-----0------2-2-----2---------------|
D|---x-------x------x-------x---------------|
A|------------------------------------------|
E|-3-----3--------2-----2-------------------|

Parte 8 De 9
   Bb°          Bm
E|-----0--------------2---------------------|
B|-2------------2h3---------3---------------|
G|---0-------0------4-----4-x---------------|
D|---x-----2-x------x-----------------------|
A|-1-----1------2-------2-------------------|
E|------------------------------------------|

Parte 9 De 9
  Em7                           A        A4
E|-------------2---0---------------------0--|
B|-----3---------------3--------2---3----3--|
G|-0-0-------0-------0-------0----2---2--2--|
D|---x-----2-x-------x-----2-x----x---x--2--|
A|------------------------------0---0----0--|
E|-0-----0-------0-------0------------------|

[Terceira Parte]

Parte 1 De 4
   D2           G    D/F#   Em7         
E|-----0------------------------------------|
B|-3---------3--3----3------3---3-----------|
G|---2-----2-x----0----2------0-------0-----|
D|-0-x---0--------x----x------x-----2-x-----|
A|------------------------------------------|
E|--------------3----2------0-----0---------|

Parte 2 De 4
   A    Bb°   Bm              E             
E|------------------2-------------0---------|
B|-2----2-----2h3---------3-----0-------0---|
G|---2----0-------4-----4-x---1-x-----1-x---|
D|---x----x-------x-------------------------|
A|-0----1-----2-------2---------------------|
E|----------------------------0-----0-------|

Parte 3 De 4
   G    A     D2         
E|----------------0-------------------------|
B|-3----2-----3---------3----3---3-----3----|
G|---0----2-----2-----2-x------2-----2-x----|
D|---x----x---0-x---0--------0-x---0--------|
A|------0-----------------------------------|
E|-3----------------------------------------|
   
Parte 4 De 4
   D2         
E|------------------------------------------|
B|-3---3-----3----3---3-----3---------------|
G|---2-----2-x------2-----2-x---------------|
D|-0-x---0--------0-x---0-------------------|
A|------------------------------------------|
E|------------------------------------------|

D2            G          D/F#
  Who says I can't get stoned?
Em                 A      Bb°
   Plan a trip to Japan alone
Bm                     E
   Doesn't matter if I even go
  G         A          D2
Who says I can't get stoned?

[Refrão Final]

Parte 1 De 8
   G              D/F#
E|------------------------------------------|
B|-3-------3------3-------3-----------------|
G|---0-0-----0------2-2-----2---------------|
D|---x-------x------x-------x---------------|
A|------------------------------------------|
E|-3-----3--------2-----2-------------------|

Parte 2 De 8
   A
E|------------------------------------------|
B|-2-------3---2-----------2----------------|
G|---2-2-----2-----4h2-------2--------------|
D|---x-------x-------x-2-----x--------------|
A|-0-----0-------0-------0------------------|
E|------------------------------------------|

Parte 3 De 8
   G              D/F#
E|------------------------------------------|
B|-3-------3------3-------3-----------------|
G|---0-0-----0------2-2-----2---------------|
D|---x-------x------x-------x---------------|
A|------------------------------------------|
E|-3-----3--------2-----2-------------------|

Parte 4 De 8
   A
E|------------------------------------------|
B|-2-------2---3-2-3-2-3-2------------------|
G|---2-2-----2-2-2-2-2-2-2----2-------------|
D|---x-------x-4-2-4-2-4-2--2-x-------------|
A|-0-----0-----0-0-0-0-0-0------------------|
E|------------------------------------------|

Parte 5 De 8
   G              D/F#
E|------------------------------------------|
B|-3-------3------3-------3-----------------|
G|---0-0-----2------2-2-----2---------------|
D|---x-------x------x-------x---------------|
A|------------------------------------------|
E|-3-----3--------2-----2-------------------|
Parte 6 De 8
   Bb°          Bm
E|--------------------2---------------------|
B|-2---2--------2h3---------3---------------|
G|---0-------0------4-----4-x---------------|
D|---x-----2-x------x-----------------------|
A|-1-----1------2-------2-------------------|
E|------------------------------------------|

Parte 7 De 8 
  Em7                           
E|-------------0----------------------------|
B|-----3---------------3--------------------|
G|-0-0-------0-------0-------0--------------|
D|---x-----2-x-----2-x-----2-x--------------|
A|------------------------------------------|
E|-0-----0-------0-------0------------------|

Parte 8 De 8
   A   A4
E|---------0--------------------------------|
B|-2---3-----------3------------------------|
G|---2---2-------2-------2------------------|
D|---x---x-----2-x-----2-x------------------|
A|-0---0-----0-------0----------------------|
E|------------------------------------------|

             G    D/F#
It's been a long night 
             A
In New York city
             G    D/F#       A
It's been a long time since 22
G            D/F#
  I don't remember 
     Bb°            Bm
You looking any better
      Em7         
But then again I don't remember
   A       A4    
I don't remember you

[Passagem Final]

Parte 1 De 3
   G              A4  A    D2
E|------------------------------------------|
B|-3--------------3---2----3---3------------|
G|---0-0-----0------2---2----2-----2-2------|
D|---x-----0-x------x---x--0-x---0---x------|
A|----------------0---0---------------------|
E|-3-----3----------------------------------|

Parte 2 De 3
  G    D/F#  D2            G       D/F#
E|---------------0---2----------------------|
B|-3---3-----3-----------3-------3----------|
G|---0---0-----2-------2-------0-------2----|
D|---x---x---0-x---0---x-----0-x-----0-x----|
A|------------------------------------------|
E|-3---2-------------------3-------2--------|

Parte 3 De 3
   D2             G    D/F#  D2
E|-----3---2--------------------------------|
B|-3--------------3----3-----3--------------|
G|---2-------2------0----2---2--------------|
D|-0-x---0---x------x----x---0--------------|
A|---------------------------0--------------|
E|----------------3----2--------------------|


( G  A4  A  D2 )
( G  D/F#  D2 )
( G  D/F#  D2 )
( G  D/F#  D2 )
Composición de John Mayer
Colaboración y revisión:
  • Thiago Almeida
59 vistas
  • Simplificar cifrado
    • ½ Tono
    • A
    • Bb
    • B
    • C
    • Db
    • D
    • Eb
    • E
    • F
    • F#
    • G
    • Ab
  • Agregar a la lista

    0 comentarios

    Ver todos los comentarios

    ¿Lograste tocar?

    1 Tocaron 0 Aún no

    ¡Graba un video tocando Who Says y envíanoslo!

    00:00 / 00:00
    Outros vídeos desta música
    Repetir Calidad Automático
    Outros vídeos desta música
    00:00 / 00:00
    Automático
    Capítulos
    • Tocando a Música
    • Apresentação/Equipamentos
    • Acordes da Primeira Parte
    • Tocando Primeira Parte
    • Ensinando Primeira Parte - Parte 1 de 6
    • Ensinando Primeira Parte - Parte 2 de 6
    • Ensinando Primeira Parte - Parte 3 de 6
    • Ensinando Primeira Parte - Parte 4 de 6
    • Ensinando Primeira Parte - Parte 5 de 6
    • Ensinando Primeira Parte - Parte 6 de 6
    • Acorde do Refrão
    • Tocando Refrão
    • Ensinando Refrão - Parte 1 de 7
    • Ensinando Refrão - Parte 2 de 7
    • Ensinando Refrão - Parte 3 de 7
    • Ensinando Refrão - Parte 4 de 7
    • Ensinando Refrão - Parte 5 de 7
    • Ensinando Refrão - Parte 6 de 7
    • Ensinando Refrão - Parte 7 de 7
    • Dica
    • Acorde da Segunda Parte
    • Tocando Segunda Parte
    • Ensinando Segunda Parte - Parte 1 de 6
    • Ensinando Segunda Parte - Parte 2 de 6
    • Ensinando Segunda Parte - Parte 3 de 6
    • Ensinando Segunda Parte - Parte 4 de 6
    • Ensinando Segunda Parte - Parte 5 de 6
    • Ensinando Segunda Parte - Parte 6 de 6
    • Tocando Segundo Refrão
    • Ensinando Segundo Refrão - Parte 1 de 8
    • Ensinando Segundo Refrão - Parte 2 de 8
    • Ensinando Segundo Refrão - Parte 3 de 8
    • Ensinando Segundo Refrão - Parte 4 de 8
    • Ensinando Segundo Refrão - Parte 5 de 8
    • Ensinando Segundo Refrão - Parte 6 de 8
    • Ensinando Segundo Refrão - Parte 7 de 8
    • Ensinando Segundo Refrão - Parte 8 de 8
    • Tocando Passagem
    • Ensinando Passagem - Parte 1 de 9
    • Ensinando Passagem - Parte 2 de 9
    • Ensinando Passagem - Parte 3 de 9
    • Ensinando Passagem - Parte 4 de 9
    • Ensinando Passagem - Parte 5 de 9
    • Ensinando Passagem - Parte 6 de 9
    • Ensinando Passagem - Parte 7 de 9
    • Ensinando Passagem - Parte 8 de 9
    • Ensinando Passagem - Parte 9 de 9
    • Tocando Terceira Parte
    • Ensinando Terceira Parte - Parte 1 de 4
    • Ensinando Terceira Parte - Parte 2 de 4
    • Ensinando Terceira Parte - Parte 3 de 4
    • Ensinando Terceira Parte - Parte 4 de 4
    • Tocando Refrão Final
    • Ensinando Refrão Final - Parte 1 de 8
    • Ensinando Refrão Final - Parte 2 de 8
    • Ensinando Refrão Final - Parte 3 de 8
    • Ensinando Refrão Final - Parte 4 de 8
    • Ensinando Refrão Final - Parte 5 de 8
    • Ensinando Refrão Final - Parte 6 de 8
    • Ensinando Refrão Final - Parte 7 de 8
    • Ensinando Refrão Final - Parte 8 de 8
    • Tocando Final
    • Ensinando Final - Parte 1 de 3
    • Ensinando Final - Parte 2 de 3
    • Ensinando Final - Parte 3 de 3
    • Encerramento
    OK