Cifra Club

Who Says

John Mayer

Tablatura: Principal (guitarra)
reproducciones 1.079
Tono: D
(riff 1)
E |---------0------0-----0----------------------------------------------------------|
B |-------- 0h3----3-----3-----3----2----2----3-----3----3-----3----3--3------------|
G |---------2------0-----2-----0----2----0----2-----1----0-----2----2--2------------|
D |---------0------0-----0-----2----2----2----4-----2----0-----0----0--0------------|
A |----------------------------2---------1----2-----2-------------------------------|
E |----------------3-----2-------------------------------3-----2--------------------|
           F      S     S     F    S    S    F     F    S     S    F  F

Who says I can't get stoned?
Turn off the lights and the telephone
Me and my house alone
Who says I can't get stoned?

Who says I can't be free?
From all of the things that I used to be
Re-write my history
Who says I can't be free?

(refrão - riff 2)
E |-------------------------|-----------------------------------------------|
B |------3----3----2-3p0-----|----------3----3----2---3----3---2--3--5------|
G |------0----2----2----4p0--|x2--------0----2----0---2----0---2------------|
D |------0----0----2---------|----------0----0----2---4----2---2------------|
A |--------------------------|--------------------1---2----2----------------|
E |------3----2--------------|----------3----2------------------------------|

        F    F    F                    F    F    F   F    F  S

It's been a long night in New York City
It's been a long night in Baton Rouge
I don't remember you looking any better
But then again I don't remember you

(riff 1)
Who says I can't get stoned?
Call up a girl that I used to know
Fake love for an hour or so
Who says I can't get stoned?

Who says I can't take time?
Meet all the girls on the county line
Then wait on fate to send a sign
Who says I can't take time?

(riff 2)
It's been a long night in New York City
It's been a long night in Austin too
I don't remember you looking any better
But then again I don't remember you

(bridge)
E |--------------------------------------|
B |---0h3---3----3-----------------------|
G |---2-----0----2-----------------------|
D |---0-----0----0-----------------------|
A |--------------------------------------|
E |---------3----2-----------------------|
     F     S    S

E |-------------------------|------------------------------------------------|
B |--0h3----3----3----2-3p0-----|----------3----3----2---3----3---2--3--5----|
G |--2------0----2----2----4p0--|x2--------0----2----0---2----0---2----------|
D |--0------0----0----2---------|----------0----0----2---4----2---2----------|
A |--------------------------|--------------------1---2----2-----------------|
E |---------3----2--------------|----------3----2----------------------------|

(riff 1)
Who says I can't get stoned?
Plan a trip to Japan alone
Doesn't matter if I even go
Who says I can't get stoned?

(riff 2)
It's been a long night in New York City
It's been a long time since 20 too
I don't remember you looking any better
But then again I don't remember you
Acordes para:
    Compositor: John Mayer Colaboración y revision:
    • steingt s

    0 comentarios

    mostrar más comentarios

    ¿Conseguiste tocar?

    27 tocaron 0 aún no

    ¡Graba un vídeo tocando Who Says y envianoslo!

    00:00 / 00:00
    outros vídeos desta música
    repetir qualidade Automático
    Outros vídeos desta música
    00:00 / 00:00
    Automático
    OK