Cifra Club

Imperial March

John Williams

Cifrado: Principal (guitarra y guitarra eléctrica)
tono: G
E|-------------------------------------------
B|-------------------------------------------
G|-------------------------------------------
D|--5--5--5-5-----8-5---8-5------------------
A|--------------6-----6----------------------
E|-------------------------------------------

E|-------------------------------------------
B|-------------------------------------------
G|--7--7--7-7--8-----------------------------
D|----------------8--------8--5--------------
A|-------------------9--6--------------------
E|-------------------------------------------

E|-------------------------------------------
B|--8-----8----------------------------------
G|-----------11--10-9-8-9-----5--4--8-7-6-7--
D|-----5-------------------6-----------------
A|-------------------------------------------
E|-------------------------------------------

E|-------------------------------------------
B|-------------------------------------------
G|------------------------7------------------
D|------4-----8--5-----8---------------------
A|---6-----6--------6------------------------
E|-------------------------------------------

E|-------------------------------------------
B|--8-----8----------------------------------
G|-----------11--10-9-8-9-----5--4--8-7-6-7--
D|-----5-------------------6-----------------
A|-------------------------------------------
E|-------------------------------------------

E|-------------------------------------------
B|-------------------------------------------
G|-------------------------------------------
D|------4-----8--5-----8--5------------------
A|---6-----6--------6------------------------
E|-------------------------------------------

00:00 / 00:00
Otros videos de esta canción
Repetir
Otros videos de esta canción
Composición de John Williams
Colaboración y revisión:
  • /dev/null
741 vistas
    • ½ Tono
    • A
    • Bb
    • B
    • C
    • Db
    • D
    • Eb
    • E
    • F
    • F#
    • G
    • Ab
  • Agregar a la lista

    0 comentarios

    Ver todos los comentarios

    ¿Lograste tocar?

    3 Tocaron 2 Aún no

    ¡Graba un video tocando Imperial March y envíanoslo!

    00:00 / 00:00
    OK