Cifra Club

Schindlers List Theme

John Williams

Cifrado: Principal (guitarra y guitarra eléctrica)
Selo Cifra Club: esta cifra foi revisada para atender aos critérios oficiais da nossa Equipe de Qualidade.
tono: Cm
E|---------------------------|-----------------------------------------------|
B|---------------------------|-----------------------------------------------|
G|-2---2---3-2-----------0-2-|-2---2---5-3-2-0-------0-3-2-0---0---0---2-0---|
D|---0---0-----3---3---3-----|---0---0-------------2---------3-------------3-|
A|---------------0-----------|-----------------3-1---------------0---0-------|
E|-------------------3-------|-----------------------------------------------|

E|-----|-------------------------|------------------|------------------------|
B|-----|-------------------------|------------------|------------------------|
G|-0-2-|-2-0---0---2-0-----------|--------2-0-------|------------------------|
D|-----|---------------3-2-0---2-|-3---3------3-2-0-|------------------------|
A|-----|-----1---1---------------|------------------|------------------------|
E|-----|-------------------------|---3---3----------|------------------------|


[Up 1 Octave]

E|-5---5---6-5-1---1---1-3-5-|-5---5---8-6-5-3-----0-3-|
B|---3---3-------------------|---3---3---------1-------|
G|---------------2---0-------|-------------------3-----|
D|---------------------------|-------------------------|
A|---------------------------|-------------------------|
E|---------------------------|-------------------------|

E|-6-5-3-1-3---3---5-3-1-3-5-|-5-3-3-5-3-1-0---0-|-1---1---5-3-1-0---|
B|---------------------------|---------------3---|-----------------3-|
G|-----------2---2-----------|----3-3------------|---0---0-----------|
D|---------------------------|-------------------|-------------------|
A|---------------------------|-------------------|-------------------|
E|---------------------------|-------------------|-------------------|


[Solo]

E|---0---1-0---------------------------------0---1-0------|
B|-----3------0--1-3---1-3-0------0------------3----------|
G|----------------------------2-1---2---------------------|
D|--------------------------------------------------------|
A|--------------------------------------------------------|
E|--------------------------------------------------------|

E|--------------------------------------------------------|
B|--0--1-3----------------------4-------------------------|
G|-----------------------2--4-5---------------------------|
D|------------0-2-3--3-5----------------------------------|
A|--------------------------------------------------------|
E|--------------------------------------------------------|
00:00 / 00:00
Otros videos de esta canción
Repetir
Otros videos de esta canción
118 exhibiciones
    • ½ Tono
    • Am
    • Bbm
    • Bm
    • Cm
    • C#m
    • Dm
    • Ebm
    • Em
    • Fm
    • F#m
    • Gm
    • G#m
  • Agregar a la lista

Afinación de cifrado

Afinador online

    00:00 / 00:00
    OK