Cifra Club

Star Wars Theme

John Williams

Cifrado: Principal (guitarra y guitarra eléctrica)
Selo Cifra Club: esta cifra foi revisada para atender aos critérios oficiais da nossa Equipe de Qualidade.
tono: Gm
E|---------------------6-------------6----------------|
B|-----------6---4-3-------6---4-3-------6---4-3-4----|
G|-------3-----------5-------------5---------------5--| x2
D|-3-3-3----------------------------------------------|
A|----------------------------------------------------|
E|----------------------------------------------------|


[2nd Part]

E|-------------------------------------------------|
B|------------4-3---------3--------------------4-3-|
G|----------------5-3-3h5---5----------------------|
D|-3-3-3-5--5-----------------5-7----3-3-3-5--5----|
A|-------------------------------------------------|
E|-------------------------------------------------|

E|-------------------------------------------------|
B|-----6------------------4-3---------3------------|
G|-5-3---5-5------------------5-3-3h5---5----------|
D|-------------3-3-3-5--5-----------------5-7-3----|
A|-------------------------------------------------|
E|-------------------------------------------------|


[End of 2nd Part]

E|---------6-4-------------------------------------|
B|---6-6-6------7-6-4-------6----------------4-----|
G|--------------------6-5-3---------------------5--|
D|-------------------------------3-3-3-5--5--------|
A|--------------------------------------------------|
E|-------------------------------------------------|


[Outro]

E|------------------6------------6-----------------|
B|------6---4-3--------6---4-3------6---4-3-4------|
G|--3-----------5h3------------5--------------5----| x2
D|-------------------------------------------------|
A|-------------------------------------------------|
E|-------------------------------------------------|
00:00 / 00:00
Otros videos de esta canción
Repetir
Otros videos de esta canción
800 exhibiciones
    • ½ Tono
    • Am
    • Bbm
    • Bm
    • Cm
    • C#m
    • Dm
    • Ebm
    • Em
    • Fm
    • F#m
    • Gm
    • G#m
  • Agregar a la lista

Afinación de cifrado

Afinador online

    00:00 / 00:00
    OK