Cifra Club

Hurt

Johnny Cash

Tablatura: Principal
reproducciones 40.100
Tono: C
Intro: Am  C  D9 (2x)
       Am

      Am        C        D9
E|-----0--------0--------0--------------------------|
B|-----1--------1--------3--------------------------|
G|-----2--------0-------2--2------------------------|
D|---2--------2---2---0-----------------------------|
A|-0-------3----------------------------------------|
E|--------------------------------------------------|

      Am       C        D9      Am
E|-----0--------0--------0--------0-----------------|
B|-----1--------1--------3--------1-----------------|
G|-----2--------0-------2--2------2-----------------|
D|---2--------2---2---0---------2-------------------|
A|-0-------3------------------0---------------------|
E|--------------------------------------------------|

Primeira Parte:

   C      D9     Am
I hurt myself today
    C     D9       Am
To see if I still feel
   C    D9         Am
I focus    on the pain
    C      D9          Am
The only thing that's real
     C      D9      Am
The needle tears a hole
    C      D9      Am
The old familiar sting
        C      D9       Am
Try to kill it    all away
         C     D9     G
But I remember everything

Refrão:

  Am7           F9
What have I become
C                G
  My sweetest friend
Am7           F9
Everyone I know
       C         G
Goes away in the end
     Am7               F9
And you could have it all
 G
My empire of dirt
Am7              F9
I will let you down
G                Am  C  D9
I will make you hurt

( Am  C  D9  Am )

Segunda Parte:

   C          D9       Am
I wear this crown of thorns
  C      D9      Am
Upon my liar's chair
 C        D9     Am
Full of broken thoughts
C     D9    Am
I cannot repair
   C          D9       Am
Beneath the stains of time
     C      D9       Am
The feeling    disappear
 C       D9     Am
You are someone else
C      D9         G
I am still right here

Refrão:

  Am7          F9
What have I become
C                G
  My sweetest friend
Am7          F9
Everyone I know
       C         G
Goes away in the end
     Am7              F9
And you could have it all
 G
My empire of dirt
Am7             F9
I will let you down
G
I will make you hurt

   Am7             F9
If I could start again
   G
A million miles away
Am7             F9
I would keep myself
G
I would find a way

0 comentarios

    mostrar más comentarios

    ¿Conseguiste tocar?

    296tocaron6aún no

    ¡Graba un vídeo tocando Hurt y envianoslo!

    00:00 / 00:00
    outros vídeos desta música
    repetirqualidadeautomática
    Outro vídeos desta música
      00:00 / 00:00
      automática
      OK