Cifra Club

Summer Rain

Johnny Rivers

Cifrado: Principal (guitarra y guitarra eléctrica)
tono: C
[Intro] Am   A7M(9)   Am7   Am6   F   C 

e|-------------------------------|
b|------5-------5-------5-----5--|       
g|----5-------5-------5-----5----|            
D|--7-----7-6---- 6-5-----4-----4|          
A|-------------------------------|        
E|-------------------------------|
 
 Am   A7M(9)   Am7        Am6    Am  A7M(9)    Am7        Am6 
Summer rain taps at my window, west wind, soft as a sweet dream; 
Am       A7M(9)     Am7        Am6 
My love, warm as the sunshine, 
F                C        F             C 
Sittin' here by me, she's here by me. 
Am   A7M(9)   Am7      Am6      Am   A7M(9)    Am7          Am6 
She stepped out of a rainbow, golden hair, shining like moonglow; 
Am   A7M(9)    Am7         Am6 
Warm lips, soft as her soul, 
F                C        F             C 
Sittin' here by me, yeah, she's here by me. 
E7                        Am     A7M(9)      Am7     Am6 
All summer long, we spent dancin' in the sand, 
D7 
And the jukebox kept on playin' 
          F                           G7 
Sargeant Pepper's Lonely Hearts Club Band. 
Am  A7M(9)     Am7      Am6     Am    A7M(9)   Am7          Am6 
We sailed into the sunset, drifted home caught by the gulf stream; 
Am    A7M(9)    Am7             Am6 
Never gave a thought for tomorrow ? 
F                 C        F             C 
Just let tomorrow be, now, let tomorrow be

[Solo] Am  A7M(9)  Am7  Am6   F   C 

e|-------------------------------------------------|
b|--------------------- 10 ------------------------|
g|--------------- 5/7~------ 9b7\5-7-5 ------------|
D|- 5h7-7/9-9/10-9---------------------7-5h7-7-7~--|
A|-------------------------------------------------|
E|-------------------------------------------------|

e|-------------------------------------10/12-12-12-12-----|
b|---------------------------10b8h10----------------------|
g|---------- 5-7-5-7/9-9-9 -------------------------------|
D|--5h7-7/9-----------------------------------------------|
A|--------------------------------------------------------|
E|--------------------------------------------------------|

Am   A7M(9)     Am7          Am6 
She wants to live in the Rockies; 
Am  A7M(9)    Am7                 Am6 
She says, "That's where we'll find peace, 
Am     A7M(9)   Am7        Am6 
Settle down, raise us a fam'ly 
F           C         F              C 
To call our own, yeah, we'll have a home. 
 
E7                        Am      A7M(9)     Am7  Am6 
All summer long, we spent groovin' in the sand, 
D7 
Ev'rybody kept on playin' 
          F                           G7 
Sargeant Pepper's Lonely Hearts Club Band. 

Am    A7M(9)   Am7         Am6     Am  A7M(9)   Am7           Am6 
Winter snow drifts by my window, west wind blowin' like thunder; 
 
Am  A7M(9)  Am7          Am6 
Our love burnin' like fire, 
 
F                  C       F               C 
And she's here by me, yeah, she's here by me. 
 
F            C       F                C 
Let tomorrow be, yeah, she's here by me.
00:00 / 00:00
Otros videos de esta canción
Repetir
Otros videos de esta canción
Composición de James Hendricks
Colaboración y revisión:
  • Marinho Dutra
  • willian
213 vistas
    • ½ Tono
    • A
    • Bb
    • B
    • C
    • Db
    • D
    • Eb
    • E
    • F
    • F#
    • G
    • Ab
  • Agregar a la lista

    0 comentarios

    Ver todos los comentarios

    ¿Lograste tocar?

    0 Tocaron 0 Aún no

    ¡Graba un video tocando Summer Rain y envíanoslo!

    00:00 / 00:00
    OK