Cifra Club

Do You Love Me?

Johnny Thunders

Cifrado: Principal (guitarra y guitarra eléctrica)
tono: F
Intro:

F
 You broke my heart
Bb
  'Cause I couldn't dance.
C                      Dm
  You didn't even want me around...
           C5
But now I'm back, to let you know

E|--1------------------------------------------------------------------|
B|--1--------3--------5--------6---------------------------------------|
G|--2--------3--------5--------7--------5------------------------------|
D|--3--------3--------5--------7--------5------------------------------|
A|--3--------1--------3--------5--------3------------------------------|
E|--1------------------------------------------------------------------|

                            C5
I can really shake 'em down.

E|---------------------------------------------------------------------|
B|---------------------------------------------------------------------|
G|--5-5-5-5-5-5-5-5----------------------------------------------------|
D|--5-5-5-5-5-5-5-5----------------------------------------------------|
A|--3-3-3-3-3-3-3-3----------------------------------------------------|
E|---------------------------------------------------------------------|

Main riff:

Oh... Do you love me?
Ah... Do you love me?
Ah... Do you love me?
(Oh... Do you love me?)

(3x)
E|---------------------------------------------------------------------|
B|---------------------------------------------------------------------|
G|-----------------3-3-3-3-5-5-5-5-------------------------------------|
D|--3--3-3-3-3-3-3-3-3-3-3-5-5-5-5-------------------------------------|
A|--3--3-3-3-3-3-3-1-1-1-1-3-3-3-3-------------------------------------|
E|--1--1-1-1-1-1-1-----------------------------------------------------|

Now that I can dance...

E|---------------------------------------------------------------------|
B|---------------------------------------------------------------------|
G|--3--3-3--3-3-3-3--3-3--3-3-3-5--5-5--5-5-5-5--5-5--5-5-5------------|
D|--3--3-3--3-3-3-3--3-3--3-3-3-5--5-5--5-5-5-5--5-5--5-5-5------------|
A|--1--1-1--1-1-1-1--1-1--1-1-1-3--3-3--3-3-3-3--3-3--3-3-3------------|
E|---------------------------------------------------------------------|

Watch me now, Hey!

(Work, work!)
Oh, work it all baby!
(Work, work!)
Well, you're drivin' me crazy,
(Work, work!)
With a little bit of soul now,

(3x)
E|---------------------------------------------------------------------|
B|---------------------------------------------------------------------|
G|-----------------3-3-3-3-5-5-5-5-------------------------------------|
D|--3--3-3-3-3-3-3-3-3-3-3-5-5-5-5-------------------------------------|
A|--3--3-3-3-3-3-3-1-1-1-1-3-3-3-3-------------------------------------|
E|--1--1-1-1-1-1-1-----------------------------------------------------|

Work!

E|---------------------------------------------------------------------|
B|---------------------------------------------------------------------|
G|-----------5-5-5-5-5-5-5-5-------------------------------------------|
D|--3--------5-5-5-5-5-5-5-5-------------------------------------------|
A|--3--------3-3-3-3-3-3-3-3-------------------------------------------|
E|--1------------------------------------------------------------------|

I can mash potato,
(I can mash potato!)
And I can do the twist,
(I can do the twist)
Now tell me baby,
(Tell me baby!)
Do you like it like this?
(Do you like it like this?)

(4x)
E|---------------------------------------------------------------------|
B|---------------------------------------------------------------------|
G|-----------------3-3-3-3-5-5-5-5-------------------------------------|
D|--3--3-3-3-3-3-3-3-3-3-3-5-5-5-5-------------------------------------|
A|--3--3-3-3-3-3-3-1-1-1-1-3-3-3-3-------------------------------------|
E|--1--1-1-1-1-1-1-----------------------------------------------------|

Tell me...
(Tell me...)
Tell me...

E|---------------------------------------------------------------------|
B|---------------------------------------------------------------------|
G|--5--5-5--5-5-5-5--5-5--5-5-5-5--5-5--5-5-5--------------------------|
D|--5--5-5--5-5-5-5--5-5--5-5-5-5--5-5--5-5-5--------------------------|
A|--3--3-3--3-3-3-3--3-3--3-3-3-3--3-3--3-3-3--------------------------|
E|---------------------------------------------------------------------|

E|---------------------------------------------------------------------|
B|---------------------------------------------------------------------|
G|--5-5-5-5-5-5-5-5----------------------------------------------------|
D|--5-5-5-5-5-5-5-5----------------------------------------------------|
A|--3-3-3-3-3-3-3-3----------------------------------------------------|
E|---------------------------------------------------------------------|

Oh... Do you love me?

E|---------------------------------------------------------------------|
B|---------------------------------------------------------------------|
G|-----------------3-3-3-3-5-5-5-5-------------------------------------|
D|--3--3-3-3-3-3-3-3-3-3-3-5-5-5-5-------------------------------------|
A|--3--3-3-3-3-3-3-1-1-1-1-3-3-3-3-------------------------------------|
E|--1--1-1-1-1-1-1-----------------------------------------------------|
00:00 / 00:00
Otros videos de esta canción
Repetir
Otros videos de esta canción
Compositor no encontrado.
Colaboración y revisión:
  • Jason Voorhees
6 vistas
    • ½ Tono
    • A
    • Bb
    • B
    • C
    • Db
    • D
    • Eb
    • E
    • F
    • F#
    • G
    • Ab
  • Agregar a la lista

    0 comentarios

    Ver todos los comentarios

    ¿Lograste tocar?

    0 Tocaron 0 Aún no

    ¡Graba un video tocando Do You Love Me? y envíanoslo!

    00:00 / 00:00
    OK