Cifra Club

Little Bit Of Whore

Johnny Thunders

Cifrado: Principal (guitarra y guitarra eléctrica)
tono: C
Tabbed by: L.A.M.F. 77'

Tuning: Standard

 *. 1 ( Intro & Chorus)

e|-------------------------------------------------------------------------|
B|-------------------------------------------------------------------------|
G|-------------------------------------------------------------------------|
D|---2-------2---------------------2--2-------2----2--2-------2------------|
A|---0--3h4--0--3/---2------2h4p2--0--0--3h4--0h4--0--0--3h4--0------------|
E|-------------------0--3h4------------------------------------------------|

  End *. 1
e|-------------------------------------------------------------------------|
B|-------------------------------------------------------------------------|
G|-------------------------------------------------------------------------|
D|---2-------2-----------------------2--2-------2--4--2--2-------2---------|
A|---0--3h4--0--3/---2------2--2h42--0--0--3h4--0--0--0--0--3h4--0---------|
E|-------------------0--3h4------------------------------------------------|

  *. 2 (Verse)                                                      
e|-------------------------------------------------------------------------|
B|-------------------------------------------------------------------------|
G|---2--2-------2--2--4p2--2--2-------2--2--4------------------------------|
D|---0--0--3h4--0--0--0-0--0--0--3h4--0--0--0--2--2-------2--4--2--2------2|
A|---------------------------------------------0--0--3h4--0--0--0--0--3h4-0|
E|-------------------------------------------------------------------------|
 
 *. 3 (Bridge)
e|----------------|
B|----------------|
G|----------------|
D|---7--5--4--3---|
A|---7--5--4--3---|
E|---5--3--2--1---|

  

| /  slide up
| \  slide down
| h  hammer-on
| p  pull-off
| ~  vibrato
| +  harmonic
| x  Mute note
============================================================================
00:00 / 00:00
Otros videos de esta canción
Repetir
Otros videos de esta canción
Composición de Johnny Thunders
12 vistas
    • ½ Tono
    • A
    • Bb
    • B
    • C
    • Db
    • D
    • Eb
    • E
    • F
    • F#
    • G
    • Ab
  • Agregar a la lista

    0 comentarios

    Ver todos los comentarios

    ¿Lograste tocar?

    0 Tocaron 0 Aún no

    ¡Graba un video tocando Little Bit Of Whore y envíanoslo!

    00:00 / 00:00
    OK