Cifra Club

One Track Mind

Johnny Thunders

Cifrado: Principal (guitarra y guitarra eléctrica)
tono: C
Intro & Verses:
e|-------------------------------|
A|-------------------------------|
D|--5-5-5/7-7-7/9-9-9/11-11-11---|
G|--5-5-5/7-7-7/9-9-9/11-11-11---|
B|--3-3-3/5-5-5/7-7-7/9--9--9----|
E|-------------------------------|x2

Chorus:
e|---------------------------------------------------------|
A|---------------------------------------------------------|
D|--5-5-5-5-----5-5-5-5-----5-5-5-5------------------------|
G|--5-5-5-5-3-3-5-5-5-5-3-3-5-5-5-5-3-3-5-5-5-5-5-5-5-5-5--|
B|--3-3-3-3-3-3-3-3-3-3-3-3-3-3-3-3-3-3-5-5-5-5-5-5-5-5-5--|
E|----------1-1---------1-1---------1-1-3-3-3-3-3-3-3-3-3--|

Solo:
e|--/8-8-8/10-10-10/12-12-12/14-14-14-----|
A|--/8-8-8/10-10-10/12-12-12/14-14-14-----|
D|----------------------------------------|
G|----------------------------------------|
B|----------------------------------------|
E|----------------------------------------|x4

Enjoy!

00:00 / 00:00
Otros videos de esta canción
Repetir
Otros videos de esta canción
Composición de Walter Lure
22 vistas
    • ½ Tono
    • A
    • Bb
    • B
    • C
    • Db
    • D
    • Eb
    • E
    • F
    • F#
    • G
    • Ab
  • Agregar a la lista

    0 comentarios

    Ver todos los comentarios

    ¿Lograste tocar?

    0 Tocaron 0 Aún no

    ¡Graba un video tocando One Track Mind y envíanoslo!

    00:00 / 00:00
    OK