Cifra Club

Rain On Me

Joji

Cifrado: Principal (guitarra y guitarra eléctrica)
tono: A
[Intro]

     A         C#m         E9

E|--5----0-7--4-----------5------------------|
B|--2---------5----7~---3----7~--------------|
G|--2---------6----7~--4-----7~--------------|
D|--2--------------6~--------6~--------------|  
A|------------4----7~--------7~--------------|
E|-------------------------------------------|

     E9b                     G#4

E|----------|--4-------4-------4-------4---|
B|-----6----|4----5-4-----5-4-----5-4----5-|
G|--6-------|------------------------------|
D|--5-------|------------------------------| 
A|--6-------|------------------------------|
E|----------|4------4-------4-------4------|

A  C#m   E9
Oooh, Oooh, Oooh, Oooh 
         A  C#m E9
Don't rain on me
         A  C#m E9
Don't rain on me

A
Why you gotta act so nice
       C#m
This ain't televised
E9
This ain't televised
                    
This ain't televised
A
Movin' at the speed of light
     C#m
And I'm terrified
E9
Yeah I'm terrified
  
So please for the love of God

Don't drench me

A C#m E9
Me
         A      C#m E9
Don't rain on me
             (Don't rain on me, don't rain on me)
A         C#m
Don't rain on me
          E9
Don't rain on me

Don't rain on me

Don't rain

( E9b  G#4 )

G#4
Woo, weekend love
         G#4
Woo, Just can't get enough

Ooh, Ooh
Composición de Joji
Colaboración y revisión:
  • João Neto
63 vistas
    • ½ Tono
    • A
    • Bb
    • B
    • C
    • Db
    • D
    • Eb
    • E
    • F
    • F#
    • G
    • Ab
  • Agregar a la lista

    0 comentarios

    Ver todos los comentarios

    ¿Lograste tocar?

    0 Tocaron 1 Aún no

    ¡Graba un video tocando Rain On Me y envíanoslo!

    Relacionados

    00:00 / 00:00
    Otros videos de esta canción
    Repetir Calidad Automático
    Otros videos de esta canción
    00:00 / 00:00
    Automático
    OK