Cifra Club

Run

Joji

Cifrado: Principal (guitarra y guitarra eléctrica)
tono: A
   Em            F#m6        G
E|---------------------------------------------------|
B|-------0------------0-------------0----------------|
G|-----0---0--------2---2---------0---0--------------|
D|---2-------2----1-------1-----0-------0------------|
A|---------------------------------------------------|
E|-0------------2------------3-----------------------|

            Am                           Am
E|-----------------------------------------------------------------|
B|-----------------1---------------------------1-----------1-------|
G|---------------2---2-------2---------------2---2-------2---2-----|
D|-------------2-------2---2---------------2-------2---2-------2---|
A|--3-2-0---0------------0-------3-2-0---0-----------0-------------|
E|--------3----------------------------3---------------------------|

Am                        Am
I fell for your magic, I tasted your skin
Em        F#m6             G                      Am
 And all this is tragic, at least I found the end
                         Am
I would miss your madness, you shed light on my sins
Em                   F#m6           G                       
And if we share in this sadness, then where have you been?
Am                      Am
I know you're not alone, like you used to be
Am                     Am
’Cause I'm not the one, like you used to think
          Em   F#m6  G   
So you just run
Am                    Am
I know that i'm stuck, in this misery
Am                   Am
Guess I'm not enough, like you used to think
             Em   F#m6 G Am
So I'll just run
Am                        Am
You bathe in your victory
Am
You blew out all my fumes
Em                   F#m6
And if I took on the planet
G                     Am
Will I pay my dues?
 Am                     Am
Your love was a mystery
 Am
Yeah my love is a fool
Em             F#m6           G            
And I travel the country just to get to you
Am                      Am
I know you're not alone, like you used to be
Am                      Am
’Cause I'm not the one, like you used to think
            Em   F#m6  G 
So you just run
Am                     Am
I know that i'm stuck, in this misery
Am                    Am
Guess I'm not enough, like you used to think
              Em    F#m G
So I'll just run

(no meio do solo)
Em               F#m
And I travel the country
 Em               F#m6         G
And I travel the country just to get you
F#m6               Em
I know you're not alone
F#m6               Em
I know you’re not alone
Em
I know you're not alone

[Solo]

E|------------------------------------|
B|--13-12-------13-12-----------------|
G|-------14-12-------14-12-14b-h17(---|
D|------------------------------------|
A|------------------------------------|
E|------------------------------------|

E|------------------------------------------------|
B|------------------------------------------------|
G|--14b-14\----12--14b-h19(-----------------------|
D|---------14---------------------------14\--14---|
A|------------------------------------------------|
E|------------------------------------------------|

E|---------------------------------------------|
B|-15b15br-15-12-------------------------------|
G|---------------15-14-12----------------------|
D|------------------------14-12----------------|
A|------------------------------14-13-12-------|
E|---------------------------------------15-12-|

E|-----15----------------------------------------------------|
B|-15b----17r15-------------------12-----------------12------|
G|----------12-14br14br-------12-----------------12----------|
D|-------------------------12----14-12-14-----12----14-12-14-|
A|----------------------14-----------------14----------------|
E|-----------------------------------------------------------|

E|-------------------------------------------------------------|
B|-------12----------12--------------15------------------------|
G|-------12----------12----------14b----16r14-14b1616161616r14-|
D|----12----14-12-------14-12----------------------------------|
A|-14-------------12----------12-------------------------------|
E|-------------------------------------------------------------|

E|------------------------0-x--------------------14-----14-----14-|
B|------------------------0-x------15b17r15--17b----17b----17b----|
G|----14-14b-12-14----12--0-x-------------------------------------|
D|-12--------------14-----0-x-------------------------------------|
A|------------------------0-x-------------------------------------|
E|------------------------0-x-------------------------------------|

E|-----14-----15-----15-----15-----15--17b19r17------|
B|-17b----18b----18b----18b----18b-------------------|
G|---------------------------------------------------|
D|---------------------------------------------------|
A|---------------------------------------------------|
E|---------------------------------------------------|
Composición de Daniel Wilson / Joji / Justin Parker
Colaboración y revisión:
2.575 vistas
    • ½ Tono
    • A
    • Bb
    • B
    • C
    • Db
    • D
    • Eb
    • E
    • F
    • F#
    • G
    • Ab
  • Agregar a la lista

    0 comentarios

    Ver todos los comentarios

    ¿Lograste tocar?

    17 Tocaron 1 Aún no

    ¡Graba un video tocando Run y envíanoslo!

    Relacionados

    00:00 / 00:00
    Otros videos de esta canción
    Repetir Calidad Automático
    Otros videos de esta canción
    00:00 / 00:00
    Automático
    OK