Notificações Amigos pendentes

      Jonas Brothers

      Lovebug

      5.671 reproducciones
      Tono: E
      A música inteira deve ser tocada com dedilhado até o segundo solo feito na guitarra
      
      (se o cifra club nao passar os acordes corretos, eles estão no final, o npumero significa a casa onde vai o dedo)
      
      B                 A               E
      Called her for the first time yesterday
      B                 A              E
      Finally found the missing part of me
      B                 A              E
      Felt so close but you were far away
      B                 A              E
      Left me without anything to say
      
      E                                          E5/Eb
      Now I'm speechless, over the edge, I'm just breathless
                                  A                        E
      I never thought that I'd catch this love bug again
      E                                 E5/Eb
      Hopeless, head over heels in the moment
                                  A                          E
      I never thought that I'd get hit by this love bug again
      
      Solo: E B A E B A E
      
      B                 A               E
      I can't get your smile out of my mind
      B                 A               E
      I think about your eyes all the time
      B                 A               E
      You're beautiful but you don't even try
      B                 A               E
      Modesty is just so hard to find
      
      E                                          E5/Eb
      Now I'm speechless, over the edge, I'm just breathless
                                  A                        E
      I never thought that I'd catch this love bug again
      E                                 E5/Eb
      Hopeless, head over heels in the moment
                                  A                          E
      I never thought that I'd get hit by this love bug again
      
      B                  A               E
      Kissed her for the first time yesterday
      B                  A               E
      Everything I wished that it would be
      B                  A           E
      Suddenly you forgot how to speak.
      B                   A                  E
      Hopeless, breathless baby can't you see?
      
      Now I'm...
      
      Solo: E E5/Eb A B
      
      E                                          E5/Eb
      Now I'm speechless, over the edge, I'm just breathless
                                  A                        E
      I never thought that I'd catch this love bug again
      E                                 E5/Eb
      Hopeless, head over heels in the moment
                                  A                          E
      I never thought that I'd get hit by this love bug again
      A         B           E
      Ohh Ohh… Love bug again
      Solo 1:
      
      E|----------------------9-7------------------6/7-7-7-7-6/7-7-7-7-----|
      B|-4-5-5-5-4-2-0----7-9--------4-5-5-5-4-2-0-------------------------|
      G|-------------------------------------------------------------------|
      D|-------------------------------------------------------------------|
      A|-------------------------------------------------------------------|
      E|-------------------------------------------------------------------|
      
      
      Solo 2:
      
      E|-------------------------------------------------------------------------|
      B|--------9~-9-10-12-10-9------------9~-9-10-12-10-9-----------------------|
      G|--11b13-----------------9----11b13-----------------11-11b13-11b13r-9-----|
      D|---------------------------------------------------------------------11--|
      A|-------------------------------------------------------------------------|
      E|-------------------------------------------------------------------------|
      
      
      E|--------------------------------------------------12-----------|
      B|-------------------------------10b12-10b12--12-14----14-12-10--|
      G|-------9-9b11-9b11r-9------------------------------------------|
      D|--9-11----------------11-9~------------------------------------|
      A|---------------------------------------------------------------|
      E|---------------------------------------------------------------|
      
      
      E|-----------------12----------------------------------------12/14-12-12----------|
      B|-10b12-12--12-14----14-12-10--10-12b14-10---------10-10/12------------14-12-10~-|
      G|-----------------------------------------11--9h11-------------------------------|
      D|--------------------------------------------------------------------------------|
      A|--------------------------------------------------------------------------------|
      E|--------------------------------------------------------------------------------|
      
      
      E|-----------|
      B|-----------|
      G|--9-9------|
      D|--9-9-7-2--|
      A|--7-6-7-2--|
      E|------5-0--|
      
      
      E|---------------|
      B|---------------|
      G|-9-9---9-----9-|
      D|-9-9-7-9-7-9-9-|
      A|-7-6-7-7-7-9-7-|
      E|-----5---5-7---|
      
      
        Composición: Joe Jonas / Kevin Jonas II / Nick JonasColaboración y revision:
        • luisapeixoto
        • gustavom2
        • Leo
        • Cronox
        • Guh
        • +1

        Comentarios 5

        140 .
        • horayo horayo: Em 07/07/2012 20:24

          a unica parte que ta errada e o ultimo solo essa musica a facinha apredi rapidinho a toca ela


        • gabriel_kling gabriel_kling: Em 28/01/2012 12:02

          Essa aí tá errada, to colocando a versão certa ai.

        • brenoasd brenoasd: Em 20/08/2011 11:47

          facil d+

        • murilokun murilokun: Em 05/03/2011 09:18

          eu vou aprende essa musica inteira nem que eu tenha que esfolar meus dedos, para tocar para a menina que eu amo !!!!!

        • sthellyth sthellyth: Em 29/01/2011 14:02

          eu amo esta musica ela e muito linda e o nick jonas esta muito mais muito lindo neste clipe ele esta de oculos de grau ai vcs tem que ver

        140 cancelar

        ¿conseguiste tocar?

        • •••

        covers

        ¡Grave un vídeo tocando Lovebug y envie para nosotros!

        Ex.: http://www.youtube.com/watch?v=0IvSvIwGdwk
        ver cover de otras canciones »
        0:00 / 0:00

        Capitulos

          1 versão de guitarra dificuldad reproducciones contribuición y correción
          1 versão de guitarra eléctrica dificuldad reproducciones contribuición y correción
          1 versão de cavaco dificuldad reproducciones contribuición y correción
          1 versão de teclado dificuldad reproducciones contribuición y correción
          play/pausefechar subir/bajar velocidad
          6ª cuerda E5ª cuerda A4ª cuerda D3ª cuerda G2ª cuerda B1ª cuerda E
            acordes
            publicidad
            cerrar
            ok