Cifra Club

Summer Rain

Jonas Brothers

Cifrado: Principal (guitarra y guitarra eléctrica)
tono: C (con acordes en la forma de G) Capotraste en 5ª casa
(capo 5ª casa)

(intro)
   D           Am    F#m  G#m
|-2-| |-2-| |-0-| |-2-2--3-3-|
|-3-| |-2-| |-1-| |-2-2--3-3-|
|-2-| |-2-| |-2-| |-4-4--3-3-|
|---| |---| |-2-| |-4-4--5-5-|
|---| |---| |---| |-2-2--5-5-|
|---| |---| |---| |-2-2--3-3-|

(verso 1)
It's time for something...
   D           Am    F#m  G#m
|-2-| |-2-| |-0-| |-2-2--3-3-|
|-3-| |-2-| |-1-| |-2-2--3-3-|
|-2-| |-2-| |-2-| |-4-4--3-3-|
|---| |---| |-2-| |-4-4--5-5-|
|---| |---| |---| |-2-2--5-5-|
|---| |---| |---| |-2-2--3-3-|

(pre-refrão) 
I've been savin' my life..
|-0-| Rainning day:|-2-2--3-|
|-2-|              |-2-2--3-|
|-2-|              |-4-4--3-|
|-2-|              |-4-4--5-|
|-0-|              |-2-2--5-|                       (2x)
|-0-|              |-2-2--3-|

(refrão)
Then out of the blue you came...
|-3-3-0-0-2-2-2-2-|
|-3-3-2-2-3-3-4-4-|
|-3-3-2-2-2-2-4-4-|
|-5-5-2-2-----2-2-|
|-5-5---------2-2-|
|-3-3---------2-2-|                 (2x)

(pós-refrão)
I'm not gonna lie, this feeling inside...
|-3-3-0-2-2-3---0-|
|-3-3-2-3-2-3---2-|
|-3-3-2-2-4-3---2-|
|-5-5-2---4-5---2-|
|-5-5-----2-5-----|
|-3-3-----2-3-----|

I'm gonna blame it, On the summer rain:

(intro)
   D           Am    F#m  G#m
|-2-| |-2-| |-0-| |-2-2--3-3-|
|-3-| |-2-| |-1-| |-2-2--3-3-|
|-2-| |-2-| |-2-| |-4-4--3-3-|
|---| |---| |-2-| |-4-4--5-5-|
|---| |---| |---| |-2-2--5-5-|
|---| |---| |---| |-2-2--3-3-|

I wanna live this day forever...:
|-3---0|
|-3---2|
|-3---2|
|-5---2|
|-5----|
|-3----|   (3x)

o resto você ja sabe:
rain,rain,rain... 

(intro)

   D           Am    F#m  G#m
|-2-| |-2-| |-0-| |-2-2--3-3-|
|-3-| |-2-| |-1-| |-2-2--3-3-|
|-2-| |-2-| |-2-| |-4-4--3-3-|
|---| |---| |-2-| |-4-4--5-5-|
|---| |---| |---| |-2-2--5-5-|
|---| |---| |---| |-2-2--3-3-|
00:00 / 00:00
Otros videos de esta canción
Repetir
Otros videos de esta canción
Composición de Adam Watts / Andy Dodd
Colaboración y revisión:
  • Victor Diresta
346 vistas
    • ½ Tono
    • A
    • Bb
    • B
    • C
    • Db
    • D
    • Eb
    • E
    • F
    • F#
    • G
    • Ab
  • Agregar a la lista

    0 comentarios

    Ver todos los comentarios

    ¿Lograste tocar?

    1 Tocaron 0 Aún no

    ¡Graba un video tocando Summer Rain y envíanoslo!

    00:00 / 00:00
    OK