Cifra Club

Chuck Es In Love

Rickie Lee Jones

Cifrado: Principal (guitarra y guitarra eléctrica)
tono: A
 
To: *
Subject: j/*



Just the intro:

E---------------2\1\2\1-|---------------------------|
B--3---------3--3\2\3\2-|-3---------3-3-3\5-0h2-0---|
G--------2h4----2\1\2\1-|-------2h4-----------------|
D----2h4----------------|---2h4---------------------|
A--5--------------------|-5-------------------------|
e-----------------------|---------------------------|

E---------------2\1\2\1-|---------------------------|
B--3---------3--3\2\3\2-|-3---------3---3-----------|
G--------2h4----2\1\2\1-|-------2h4-----------------|
D----2h4----------------|---2h4---------------------|
A--5--------------------|-5-------------5-----------|
e-----------------------|---------------------------|
00:00 / 00:00
Otros videos de esta canción
Repetir
Otros videos de esta canción
Composición de Rickie Lee Jones
29 exhibiciones
    • ½ Tono
    • A
    • Bb
    • B
    • C
    • Db
    • D
    • Eb
    • E
    • F
    • F#
    • G
    • Ab
  • Agregar a la lista
    00:00 / 00:00
    OK