Cifra Club

Breakin Me

Jonny Lang

Cifrado: Principal (guitarra y guitarra eléctrica)
Selo Cifra Club: esta cifra foi revisada para atender aos critérios oficiais da nossa Equipe de Qualidade.
tono: C
Intro riff (repeat 3x)

  C          Am              Gadd9         F?
E|------------------------------------3------------3p0--|
B|-0h1-1------3p1-1---------------3---3----------1-1----|
G|-----0------2---2---------------0-----------0h2-2-----|
D|---------2---------2---2------0--0----0---3-----3-----|
A|-3---3------0---0-----------------2----2--------------|
E|---------------------0---0-/3-------------------------|
           ^                                         ^
On 4th time riff changes slightly:

  C          Am              Gadd9         F?
E|------------------------------------3-----0---|
B|-0h1-1------3p1-1---------------3---3-----1---|
G|-----0------2---2---------------0---------2---|
D|---------2---------2---2------0--0----0---3---|
A|-3---3------0---0-----------------2----2--3---|
E|---------------------0---0-/3-------------1---|
           ^                               T

Repeat 4X
  C          Am              Gadd9         F?
E|------------------------------------3------------3p0--|
B|-0h1-1------3p1-1---------------3---3----------1-1----|
G|-----0------2---2---------------0-----------0h2-2-----|
D|---------2---------2---2------0--0----0---3-----3-----|
A|-3---3------0---0-----------------2----2--------------|
E|---------------------0---0-/3-------------------------|
           ^                                         ^

Chorus (I think part of its played with a phaser)

                       C          F
E|---------0---------------------------0-0-0-3p0-|
B|-------3-5-/8-6-5-3-1------1-----1---1-1-1h3p1-|
G|---------5-/7-7-5-5-0----0-----0---2-2-2-2-----|
D|-3-2-0-----------------0h2----/2---3-3-3-3-----|
A|--------------------3-3------------3-3-3-3-----|
E|-----------------------------------1-1-1-1-----|
                                    T T T T

E|---------0----------------------|
B|----/6---5-/8-6-5-----6---------|
G|----/7---5-/7-7-5-3/5-7| ?5h7-7---|
D|-----0--------------------------|
A|-8-7----------------------------|
E|--------------------------------|


Repeat 3X
  C          Am              Gadd9         F?
E|------------------------------------3------------3p0--|
B|-0h1-1------3p1-1---------------3---3----------1-1----|
G|-----0------2---2---------------0-----------0h2-2-----|
D|---------2---------2---2------0--0----0---3-----3-----|
A|-3---3------0---0-----------------2----2--------------|
E|---------------------0---0-/3-------------------------|
           ^                                         ^

Chorus
                       C          F?
E|---------0---------------------------0-0-0-3p0-|
B|-------3-5-/8-6-5-3-1------1-----1---1-1-1h3p1-|
G|---------5-/7-7-5-5-0----0-----0---2-2-2-2-----|
D|-3-2-0-----------------0h2----/2---3-3-3-3-----|
A|--------------------3-3------------3-3-3-3-----|
E|-----------------------------------1-1-1-1-----|
                                    T T T T

E|---------0----------------------|
B|----/6---5-/8-6-5-----6---------|
G|----/7---5-/7-7-5-3/5-7| ?5h7-7---|
D|-----0--------------------------|
A|-8-7----------------------------|
E|--------------------------------|


First Solo
                                Whammy
E|-20\17-17\15-15-12-12h13p12-----------------------------|
B|----------------------------13--------------------------|
G|-------------------------------12b14b12\-------------12-|
D|--------------------------------------------12/14-15----|
A|--------------------------------------------------------|
E|--------------------------------------------------------|

E|---------------------------------------------------------|
B|---------------------------------------------------------|
G|---------------------------------------------------------|
D|-14h15p14----------------------------------------12-12b14|
A|----------15-15/17\15---------12-12---12---/12-15--------|
E|------------------------/12-15------15-------------------|

E|----------|
B|----------|
G|----------|
D|-10h12----|
A|-------12-|
E|----------|


Part 2

E|-------7---------7---------7-------------|
B|-----5---------5---------5-----------3---|
G|---5---------5---------5-----------0---0-|
D|-7-------7-6-------6-5-------5\0h4-------|
A|-----------------------------------------|
E|-----------------------------------------|

E|-------7---------7---------7---------------------(1/3)--|
B|-----5---------5---------5-----------------------(1/3)--|
G|---5---------5---------5--------------------------------|
D|-7-------7-6-------6-5-------5\0-0----------------------|
A|-----------------------------------5\3/8----------------|
E|------------------------------------------1/5h8-5\3-----|

    C    Am     Gadd9 F?
E|-----------------3---0----------------3------------3-|
B|-----------------3---1----------------3-0h1p0----1---|
G|---9----5--------0---2---9------5-----0------0-------|
D|---10---7--------0---3---10-----7-----0--------3-----|
A|---10---7--------2---3---10-8p7-7-----2--------------|
E|-3/8----5---8/10\3---1---8------5--/8\3--------------|
                      T

Chorus
Repeat 2X
                       C          F?
E|---------0---------------------------0-0-0-3p0-|
B|-------3-5-/8-6-5-3-1------1-----1---1-1-1h3p1-|
G|---------5-/7-7-5-5-0----0-----0---2-2-2-2-----|
D|-3-2-0-----------------0h2----/2---3-3-3-3-----|
A|--------------------3-3------------3-3-3-3-----|
E|-----------------------------------1-1-1-1-----|
                                    T T T T

On 3rd time:
                       C
E|---------0---------------3----3-|
B|-------3-5-/8-6-5-3-0h1-3-1-3---|
G|---------5-/7-7-5-5-------------|
D|-3-2-0--------------------------|
A|--------------------------------|
E|--------------------------------|


End Solo
                      Whammy
E|---------------------------------------------------------|
B|-----------8-10\8---8~~~~~\5-----------------------------|
G|-6b8b6-X---7/9| \7-7-7~~~~~\5------7b8b7-5h7p5------------|
D|----------------------------------------------7p5------5-|
A|-------------------------------------------------7-5/7---|
E|---------------------------------------------------------|

E|------------------------------------/12-10------------|
B|-------------------------------10-13------13----------|
G|--------------------------10/12--------------12/14\12-|
D|-7-7p5------------------------------------------------|
A|-------7-5-----5--------------------------------------|
E|-----------8------------------------------------------|

E|-----------------------------------------------11/12-13-|
B|--------------------------------------------------------|
G|--------------------------------------------------------|
D|-14h15p14-14h15p14-----10--/14--12-12\10----------------|
A|-------------------/12-------------------12\------------|
E|--------------------------------------------------------|

E|-12-------------17\---15\--(12)------12-11---------------|
B|----13\---10h13----------------------------13h15h13---13-|
G|--------12------------------------------------------14---|
D|---------------------------------------------------------|
A|---------------------------------------------------------|
E|---------------------------------------------------------|
Otros videos de esta canción
    1 exhibiciones
      • ½ Tono
      • A
      • Bb
      • B
      • C
      • Db
      • D
      • Eb
      • E
      • F
      • F#
      • G
      • Ab
    • Agregar a la lista

    Afinação da cifra

    Afinador online

      Ops (: Contenido disponible solo en portugués.
      OK