Cifra Club

Mandinga abrime la puerta

Jorge Cafrune

Cifrado: Principal (guitarra y guitarra eléctrica)
tono: Em
E|---0-0---0-7--5-3-0-----0---7--5-3-0-----0---7-7--7--5-3-3--5-7-7-7-5-3-|
B|-------0---8--7-5-0---0---0-8--7-5-0---0---0-8-8--8--7-5-5--7-8-8-8-7-5-|
G|------------------------------------------------------------------------|
D|------------------------------------------------------------------------|
A|------------------------------------------------------------------------|
E|-------------0-0--------------0-0---------------------------------------|

      G  
De pobre y casi desnudo
      A7     D7    G  
y sin tener qué comer
       G       A7     G  
yo llegué a la Salamanca
     B7           Em 
pa’ verme con Lucifer.

E|------------------------------------------------3-----------------------|
B|------0------------------------------0----------0-----------------------|
G|-----0--4--2-0--------0-4--2-0------0--4--2-0---0-----------------------|
D|----2---5--4-2-2-----0--5--4-2-2---2---5--4-2-2-2------------------------|
A|---------------2----2----------2--------------2-2-----------------------|
E|---0------0-0----0-0------0-0---0-0------0-0----0-----------------------|


Mandinga abrime la puerta
le dije cuando llegué
no le tengo miedo a nada
cansado de padecer.

E|---0-0---0-7--5-3-0-----0---7--5-3-0-----0---7-7--7--5-3----------------|
B|-------0---8--7-5-0---0---0-8--7-5-0---0---0-8-8--8--7-5----------------|
G|------------------------------------------------------------------------|
D|------------------------------------------------------------------------|
A|------------------------------------------------------------------------|
E|-------------0-0--------------0-0---------------------------------------|

Entra nomás gaucho pobre
que nada te ha de pesar
viniendo a mi Salamanca
ya nada te ha de faltar.

El alba se viene encima
el lucero ya se va
páseme la tinta china
que un contrato hay que firmar.

Mandinga abrime la puerta
quiero ser guitarreador
dame suerte para el juego
mucha dicha en el amor.

Siquerés que abrala puerta
chacarera has de tocar
y en menos que cante un gallo
ya la principié a puntear.

Lindo va dijo el Zupay
no te vas a equivocar
con la cola y mis espuelas
yo te marcaré el compás.
Compositor não encontrado.
    • ½ Tono
    • Am
    • Bbm
    • Bm
    • Cm
    • C#m
    • Dm
    • Ebm
    • Em
    • Fm
    • F#m
    • Gm
    • G#m
  • Agregar a la lista

    0 comentarios

    Ver todos los comentarios

    ¿Lograste tocar?

    0 Tocaron 0 Aún no

    ¡Graba un video tocando Mandinga abrime la puerta y envíanoslo!

    00:00 / 00:00
    Outros vídeos desta música
    Repetir Calidad Automático
    Outros vídeos desta música
    00:00 / 00:00
    Automático
    OK