Cifra Club

Aprenda

31/12

Jorge e Mateus

Tablatura: Versão 2 (guitarra)
tono: C
Intro: F Am
Intro 2x: F Dm Am

Porque, você não sai da minha cabeça...

E|-----------------------------------------|
B|-----------------------------------------|
G|-7p5-5-7/9-------------------------------|
D|----7-----7~-----9/10--5h7p5--5/7--------|
A|-----------------------------7-----------|
E|-----------------------------------------|

E|---------------------------------------------|
B|---------------------------------------------|
G|----------7/9---7-12-7h9------5h7p5-7/8-5----|
D|-7--9--10----------------10-7------7-----5~--|
A|---------------------------------------------|
E|---------------------------------------------|

E|-20b22r20-17--17-20-17~-x------------------X-12-X--|
B|------------18----------x------------------X-12-X--|
G|------------------------x------------------X-12-X--|
D|------------------------x-12\5-5/7-7/9-7~--X-12-X--|
A|------------------------x------------------X-12-X--|
E|------------------------x------------------X-12-X--|
                            PM...............     HM

E|-x-x---------------------x-x---------------------|
B|-x-x---------------------x-x---------------------|
G|-x-x----5-5-5h7p5-5h7p5--x-x----5-5-5h7p5--------|
D|-x-x-5h7---------7-----5-x-x-5h7---------5-5h7-5-|
A|-x-x---------------------x-x---------------------|
E|-x-x---------------------x-x---------------------|
  PM..............................................

E|-x-x---------------------x-x-------------------------|
B|-x-x---------------------x-x-------------------------|
G|-x-x----5-5-5h7p5-5h7p5--x-x----5-5-5h7p5------------|
D|-x-x-5h7---------7-----5-x-x-5h7---------5-5h7p5-5/7~|
A|-x-x---------------------x-x-------------------------|
E|-x-x---------------------x-x-------------------------|
  PM.........................................

F                Dm
É 31 de dezembro fim de mais um ano
Am
E por mais que eu tente fazer outros planos
F                Dm
Outro ano começa com o antigo sonho
Am                                        F  Dm
De ter você comigo e por mais que eu queira

Am                                F  Dm
Porque você não sai da minha cabeça?
Am
Porque você não sai da minha cabeça?

G                F
E vou pedir pra toda estrela que eu vejo
G                E
Pra realizar meu único desejo!

F       Dm          Am
Amanhecer, primeiro de janeiro com você
F        Dm           Am
Banho de mar, amar e amar de amor me perder

( F  Dm )

Am                                F  Dm
Porque você não sai da minha cabeça?
Am                                F  Dm Am
Porque você não sai da minha cabeça?
Composição de Dudu Borges / Jorge / Mateus / Neto Schaefer
Colaboración y revision:
  • Rodolfo Santos
  • alexander augusto
  • Douglas Silva
13 reproducciones
    • ½ Tono
    • A
    • Bb
    • B
    • C
    • Db
    • D
    • Eb
    • E
    • F
    • F#
    • G
    • Ab
  • Adicionar à lista

    0 comentarios

    Ver todos os comentários
    00:00 / 00:00
    outros vídeos desta música
    repetir qualidade Automático
    Outros vídeos desta música
    00:00 / 00:00
    Automático
    OK